  0
SECTION
  2
HEADER
  9
$ACADVER
  1
AC1009
  9
$INSBASE
 10
110.77443
 20
159.239271
 30
0.0
  9
$EXTMIN
 10
46.840707758980933
 20
18.360409527413569
 30
0.0
  9
$EXTMAX
 10
51.403390065133962
 20
27.904290994404509
 30
0.0
  9
$LIMMIN
 10
0.0
 20
0.0
  9
$LIMMAX
 10
75.0
 20
75.0
  9
$ORTHOMODE
 70
     0
  9
$REGENMODE
 70
     1
  9
$FILLMODE
 70
     1
  9
$QTEXTMODE
 70
     0
  9
$MIRRTEXT
 70
     1
  9
$DRAGMODE
 70
     2
  9
$LTSCALE
 40
5.0
  9
$OSMODE
 70
    37
  9
$ATTMODE
 70
     1
  9
$TEXTSIZE
 40
3.0
  9
$TRACEWID
 40
0.05
  9
$TEXTSTYLE
  7
STANDARD
  9
$CLAYER
  8
0
  9
$CELTYPE
  6
BYLAYER
  9
$CECOLOR
 62
   256
  9
$DIMSCALE
 40
1.0
  9
$DIMASZ
 40
3.0
  9
$DIMEXO
 40
0.0625
  9
$DIMDLI
 40
0.38
  9
$DIMRND
 40
0.0
  9
$DIMDLE
 40
0.0
  9
$DIMEXE
 40
0.18
  9
$DIMTP
 40
0.0
  9
$DIMTM
 40
0.0
  9
$DIMTXT
 40
3.0
  9
$DIMCEN
 40
0.09
  9
$DIMTSZ
 40
0.0
  9
$DIMTOL
 70
     0
  9
$DIMLIM
 70
     0
  9
$DIMTIH
 70
     0
  9
$DIMTOH
 70
     0
  9
$DIMSE1
 70
     0
  9
$DIMSE2
 70
     0
  9
$DIMTAD
 70
     1
  9
$DIMZIN
 70
     0
  9
$DIMBLK
  1

  9
$DIMASO
 70
     1
  9
$DIMSHO
 70
     0
  9
$DIMPOST
  1

  9
$DIMAPOST
  1

  9
$DIMALT
 70
     0
  9
$DIMALTD
 70
     2
  9
$DIMALTF
 40
25.399999999999999
  9
$DIMLFAC
 40
1.0
  9
$DIMTOFL
 70
     0
  9
$DIMTVP
 40
0.0
  9
$DIMTIX
 70
     0
  9
$DIMSOXD
 70
     0
  9
$DIMSAH
 70
     0
  9
$DIMBLK1
  1

  9
$DIMBLK2
  1

  9
$DIMSTYLE
  2
STANDARD
  9
$DIMCLRD
 70
     0
  9
$DIMCLRE
 70
     0
  9
$DIMCLRT
 70
     0
  9
$DIMTFAC
 40
1.0
  9
$DIMGAP
 40
0.09
  9
$LUNITS
 70
     2
  9
$LUPREC
 70
     4
  9
$SKETCHINC
 40
0.1
  9
$FILLETRAD
 40
0.1
  9
$AUNITS
 70
     0
  9
$AUPREC
 70
     0
  9
$MENU
  1
acad
  9
$ELEVATION
 40
0.0
  9
$PELEVATION
 40
0.0
  9
$THICKNESS
 40
0.0
  9
$LIMCHECK
 70
     0
  9
$BLIPMODE
 70
     0
  9
$CHAMFERA
 40
0.0
  9
$CHAMFERB
 40
0.0
  9
$SKPOLY
 70
     0
  9
$TDCREATE
 40
2449291.6096759262
  9
$TDUPDATE
 40
2453442.5934562031
  9
$TDINDWG
 40
0.2724106134
  9
$TDUSRTIMER
 40
0.2724077199
  9
$USRTIMER
 70
     1
  9
$ANGBASE
 50
0.0
  9
$ANGDIR
 70
     0
  9
$PDMODE
 70
     0
  9
$PDSIZE
 40
0.0
  9
$PLINEWID
 40
0.0
  9
$COORDS
 70
     1
  9
$SPLFRAME
 70
     0
  9
$SPLINETYPE
 70
     5
  9
$SPLINESEGS
 70
     8
  9
$ATTDIA
 70
     0
  9
$ATTREQ
 70
     1
  9
$HANDLING
 70
-16383
  9
$HANDSEED
  5
984E
  9
$SURFTAB1
 70
     6
  9
$SURFTAB2
 70
     6
  9
$SURFTYPE
 70
     6
  9
$SURFU
 70
     6
  9
$SURFV
 70
     6
  9
$UCSNAME
  2

  9
$UCSORG
 10
0.0
 20
0.0
 30
0.0
  9
$UCSXDIR
 10
1.0
 20
0.0
 30
0.0
  9
$UCSYDIR
 10
0.0
 20
1.0
 30
0.0
  9
$PUCSNAME
  2

  9
$PUCSORG
 10
0.0
 20
0.0
 30
0.0
  9
$PUCSXDIR
 10
1.0
 20
0.0
 30
0.0
  9
$PUCSYDIR
 10
0.0
 20
1.0
 30
0.0
  9
$USERI1
 70
     0
  9
$USERI2
 70
     0
  9
$USERI3
 70
     0
  9
$USERI4
 70
     0
  9
$USERI5
 70
     0
  9
$USERR1
 40
0.0
  9
$USERR2
 40
0.0
  9
$USERR3
 40
0.0
  9
$USERR4
 40
0.0
  9
$USERR5
 40
0.0
  9
$WORLDVIEW
 70
     1
  9
$SHADEDGE
 70
     3
  9
$SHADEDIF
 70
    70
  9
$TILEMODE
 70
     1
  9
$MAXACTVP
 70
    48
  9
$PLIMCHECK
 70
     0
  9
$PEXTMIN
 10
1.1314166774899941
 20
0.7937500420517809
 30
0.0
  9
$PEXTMAX
 10
10.18275009740994
 20
7.1437503784660228
 30
0.0
  9
$PLIMMIN
 10
-0.1512494425135334
 20
-0.1679166658656803
  9
$PLIMMAX
 10
11.538750355637911
 20
8.0987497765248211
  9
$UNITMODE
 70
     0
  9
$VISRETAIN
 70
     0
  9
$PLINEGEN
 70
     0
  9
$PSLTSCALE
 70
     0
  0
ENDSEC
  0
SECTION
  2
TABLES
  0
TABLE
  2
VPORT
 70
     2
  0
VPORT
  2
*ACTIVE
 70
     0
 10
0.0
 20
0.0
 11
1.0
 21
1.0
 12
48.387988002458911
 22
25.225023081731418
 13
0.0
 23
0.0
 14
1.0
 24
1.0
 15
0.0
 25
0.0
 16
0.0
 26
0.0
 36
1.0
 17
0.0
 27
0.0
 37
0.0
 40
18.21299441229657
 41
1.5778688524590161
 42
50.0
 43
0.0
 44
0.0
 50
0.0
 51
0.0
 71
     0
 72
   100
 73
     1
 74
     1
 75
     0
 76
     0
 77
     0
 78
     0
  0
ENDTAB
  0
TABLE
  2
LTYPE
 70
     1
  0
LTYPE
  2
CONTINUOUS
 70
     0
  3
Solid line
 72
    65
 73
     0
 40
0.0
  0
ENDTAB
  0
TABLE
  2
LAYER
 70
     1
  0
LAYER
  2
0
 70
     0
 62
     7
  6
CONTINUOUS
  0
ENDTAB
  0
TABLE
  2
STYLE
 70
     1
  0
STYLE
  2
STANDARD
 70
     0
 40
0.0
 41
1.0
 50
0.0
 71
     0
 42
3.0
  3
txt.shx
  4
BIGFONT.shx
  0
ENDTAB
  0
TABLE
  2
VIEW
 70
     0
  0
ENDTAB
  0
TABLE
  2
UCS
 70
     0
  0
ENDTAB
  0
TABLE
  2
APPID
 70
     1
  0
APPID
  2
ACAD
 70
     0
  0
ENDTAB
  0
TABLE
  2
DIMSTYLE
 70
     1
  0
DIMSTYLE
  2
STANDARD
 70
     0
  3

  4

  5

  6

  7

 40
1.0
 41
0.18
 42
0.0625
 43
0.38
 44
0.18
 45
0.0
 46
0.0
 47
0.0
 48
0.0
140
0.18
141
0.09
142
0.0
143
25.399999999999999
144
1.0
145
0.0
146
1.0
147
0.09
 71
     0
 72
     0
 73
     1
 74
     1
 75
     0
 76
     0
 77
     0
 78
     0
170
     0
171
     2
172
     0
173
     0
174
     0
175
     0
176
     0
177
     0
178
     0
  0
ENDTAB
  0
ENDSEC
  0
SECTION
  2
BLOCKS
  0
BLOCK
  8
0
  2
$MODEL_SPACE
 70
     0
 10
0.0
 20
0.0
 30
0.0
  3
$MODEL_SPACE
  1

  0
ENDBLK
  5
945C
  8
0
  0
BLOCK
 67
     1
  8
0
  2
$PAPER_SPACE
 70
     0
 10
0.0
 20
0.0
 30
0.0
  3
$PAPER_SPACE
  1

  0
ENDBLK
  5
9458
 67
     1
  8
0
  0
ENDSEC
  0
SECTION
  2
ENTITIES
  0
LINE
  5
9468
  8
0
 10
47.265000000000001
 20
25.507699999999989
 30
0.0
 11
47.265000000000001
 21
21.983786865520941
 31
0.0
  0
LINE
  5
9469
  8
0
 10
51.153000000000013
 20
21.983786865520941
 30
0.0
 11
51.15299999999997
 21
25.559514689121968
 31
0.0
  0
LINE
  5
946A
  8
0
 10
48.321234151644532
 20
18.789465568613512
 30
0.0
 11
48.315007860657488
 21
19.638935797754129
 31
0.0
  0
LINE
  5
946B
  8
0
 10
50.190368696701171
 20
18.78946556861354
 30
0.0
 11
50.190368696701178
 21
19.638780534196311
 31
0.0
  0
ARC
  5
946C
  8
0
 10
49.255801424172851
 20
19.592771936778181
 30
0.0
 40
1.232362409364602
 50
220.6806736378108
 51
319.3193263621896
  0
LINE
  5
946D
  8
0
 10
47.265000000000001
 20
21.983786865520941
 30
0.0
 11
47.393026806627702
 21
21.897602183577991
 31
0.0
  0
LINE
  5
946E
  8
0
 10
47.393026806627702
 20
21.897602183577991
 30
0.0
 11
48.314577871735871
 21
21.486938142178872
 31
0.0
  0
LINE
  5
946F
  8
0
 10
48.314577871735871
 20
21.486938142178872
 30
0.0
 11
48.844402806542149
 21
21.385777882176122
 31
0.0
  0
LINE
  5
9470
  8
0
 10
48.844402806542149
 20
21.385777882176122
 30
0.0
 11
50.2828402524393
 21
21.541790223594919
 31
0.0
  0
LINE
  5
9471
  8
0
 10
50.2828402524393
 20
21.541790223594919
 30
0.0
 11
50.813316121804952
 21
21.77271140455175
 31
0.0
  0
LINE
  5
9472
  8
0
 10
50.813316121804952
 20
21.77271140455175
 30
0.0
 11
51.153000000000013
 21
21.983786865520941
 31
0.0
  0
LINE
  5
9473
  8
0
 10
48.844402806542149
 20
19.835614039529862
 30
0.0
 11
50.2828402524393
 21
19.991626380948649
 31
0.0
  0
LINE
  5
9474
  8
0
 10
47.393026806627702
 20
20.34743834093171
 30
0.0
 11
48.314577871735871
 21
19.93677429953263
 31
0.0
  0
LINE
  5
9475
  8
0
 10
47.265000000000001
 20
20.433623022874681
 30
0.0
 11
47.393026806627702
 21
20.34743834093171
 31
0.0
  0
LINE
  5
9476
  8
0
 10
48.314577871735871
 20
19.93677429953263
 30
0.0
 11
48.844402806542149
 21
19.835614039529862
 31
0.0
  0
LINE
  5
9477
  8
0
 10
50.2828402524393
 20
19.991626380948649
 30
0.0
 11
50.813316121804952
 21
20.22254756190549
 31
0.0
  0
LINE
  5
9478
  8
0
 10
50.813316121804952
 20
20.22254756190549
 30
0.0
 11
51.153000000000013
 21
20.433623022874681
 31
0.0
  0
LINE
  5
9479
  8
0
 10
51.153000000000013
 20
21.63362302287468
 30
0.0
 11
51.153000000000013
 21
20.433623022874681
 31
0.0
  0
LINE
  5
947A
  8
0
 10
50.813316121804952
 20
21.422547561905489
 30
0.0
 11
50.813316121804952
 21
20.22254756190549
 31
0.0
  0
LINE
  5
947B
  8
0
 10
50.2828402524393
 20
21.191626380948641
 30
0.0
 11
50.2828402524393
 21
19.991626380948649
 31
0.0
  0
LINE
  5
947C
  8
0
 10
48.844402806542149
 20
21.035614039529872
 30
0.0
 11
48.844402806542149
 21
19.835614039529862
 31
0.0
  0
LINE
  5
947D
  8
0
 10
48.314577871735871
 20
21.136774299532622
 30
0.0
 11
48.314577871735871
 21
19.93677429953263
 31
0.0
  0
LINE
  5
947E
  8
0
 10
47.393026806627702
 20
21.54743834093173
 30
0.0
 11
47.393026806627702
 21
20.34743834093171
 31
0.0
  0
LINE
  5
947F
  8
0
 10
47.265000000000001
 20
21.63362302287468
 30
0.0
 11
47.265000000000001
 21
20.433623022874681
 31
0.0
  0
LINE
  5
9480
  8
0
 10
47.265000000000001
 20
21.63362302287468
 30
0.0
 11
47.324095277089768
 21
21.944005293251251
 31
0.0
  0
LINE
  5
9481
  8
0
 10
51.153000000000013
 20
21.63362302287468
 30
0.0
 11
51.044904899888131
 21
21.916617875323752
 31
0.0
  0
ARC
  5
9482
  8
0
 10
49.20900000000001
 20
24.492477574750051
 30
0.0
 40
3.4571932761676121
 50
235.7845869695517
 51
304.21541303044808
  0
LINE
  5
9483
  8
0
 10
47.625162545522159
 20
20.243993394366129
 30
0.0
 11
47.625162545522159
 21
20.028167367685171
 31
0.0
  0
LINE
  5
9484
  8
0
 10
47.625162545522159
 20
20.028167367685171
 30
0.0
 11
48.633898769992243
 21
19.651249900653472
 31
0.0
  0
ARC
  5
9485
  8
0
 10
48.790833928701971
 20
19.599113181585189
 30
0.0
 40
0.1653689254801353
 50
348.60589051256761
 51
161.6225725640297
  0
LINE
  5
9486
  8
0
 10
48.952943679120573
 20
19.566443465735968
 30
0.0
 11
50.530049355134238
 21
19.802407764734301
 31
0.0
  0
ARC
  5
9487
  8
0
 10
50.64060926730361
 20
19.835771710164281
 30
0.0
 40
0.1154844016893523
 50
26.79157321744119
 51
196.7923721279009
  0
LINE
  5
9488
  8
0
 10
50.743696663489992
 20
19.887825872159809
 30
0.0
 11
50.743696663489992
 21
20.192241550906552
 31
0.0
  0
LINE
  5
9489
  8
0
 10
47.608724334905141
 20
19.961344781453199
 30
0.0
 11
48.617460559375232
 21
19.5844273144215
 31
0.0
  0
ARC
  5
948A
  8
0
 10
48.774395718084968
 20
19.532290595353231
 30
0.0
 40
0.1653689254801353
 50
348.60589051256761
 51
161.6225725640297
  0
LINE
  5
948B
  8
0
 10
48.936505468503583
 20
19.499620879504
 30
0.0
 11
50.555076486584092
 21
19.753909952007071
 31
0.0
  0
ARC
  5
948C
  8
0
 10
50.671894239715201
 20
19.771621819465508
 30
0.0
 40
0.1181528573309564
 50
34.96244400022114
 51
188.6215013451239
  0
LINE
  5
948D
  8
0
 10
50.768723794939802
 20
19.839328059432582
 30
0.0
 11
50.743696663489992
 21
19.887825872159809
 31
0.0
  0
LINE
  5
948E
  8
0
 10
47.608724334905141
 20
19.961344781453199
 30
0.0
 11
47.625162545522159
 21
20.028167367685171
 31
0.0
  0
LINE
  5
948F
  8
0
 10
47.5995524866522
 20
19.906267951396121
 30
0.0
 11
48.608288711122292
 21
19.529350484364421
 31
0.0
  0
ARC
  5
9490
  8
0
 10
48.76522386983202
 20
19.477213765296149
 30
0.0
 40
0.1653689254801353
 50
348.60589051256761
 51
161.6225725640297
  0
LINE
  5
9491
  8
0
 10
48.927333620250629
 20
19.444544049446922
 30
0.0
 11
50.580864462017288
 21
19.698833121949988
 31
0.0
  0
ARC
  5
9492
  8
0
 10
50.697682215148411
 20
19.716544989408451
 30
0.0
 40
0.1181528573309564
 50
34.962444000221211
 51
188.6215013451239
  0
LINE
  5
9493
  8
0
 10
50.794511770372999
 20
19.78425122937551
 30
0.0
 11
50.768723794939788
 21
19.839328059432599
 31
0.0
  0
LINE
  5
9494
  8
0
 10
47.5995524866522
 20
19.906267951396121
 30
0.0
 11
47.608724334905141
 21
19.961344781453199
 31
0.0
  0
ARC
  5
9495
  8
0
 10
49.255801424172851
 20
19.69277193677819
 30
0.0
 40
1.232362409364602
 50
220.6806736378108
 51
319.3193263621896
  0
ARC
  5
9496
  8
0
 10
49.255801424172851
 20
19.792771936778191
 30
0.0
 40
1.232362409364602
 50
220.6806736378108
 51
319.3193263621896
  0
ARC
  5
9497
  8
0
 10
49.255801424172851
 20
19.892771936778189
 30
0.0
 40
1.232362409364602
 50
220.6806736378108
 51
319.3193263621896
  0
ARC
  5
9498
  8
0
 10
49.255801424172851
 20
19.99277193677819
 30
0.0
 40
1.232362409364602
 50
220.6806736378108
 51
319.3193263621896
  0
ARC
  5
9499
  8
0
 10
49.255801424172851
 20
20.092771936778188
 30
0.0
 40
1.232362409364602
 50
220.6806736378108
 51
319.3193263621896
  0
ARC
  5
949A
  8
0
 10
49.255801424172851
 20
20.19277193677819
 30
0.0
 40
1.232362409364602
 50
220.6806736378108
 51
319.3193263621896
  0
ARC
  5
949B
  8
0
 10
49.255801424172851
 20
20.292771936778191
 30
0.0
 40
1.232362409364602
 50
220.6806736378108
 51
319.3193263621896
  0
ARC
  5
949C
  8
0
 10
49.255801424172851
 20
20.392771936778171
 30
0.0
 40
1.232362409364602
 50
220.6806736378108
 51
319.3193263621896
  0
ARC
  5
949D
  8
0
 10
49.255801424172851
 20
20.49277193677819
 30
0.0
 40
1.232362409364602
 50
225.89168923830741
 51
315.59471244541879
  0
ARC
  5
949E
  8
0
 10
49.255801424172851
 20
20.592771936778181
 30
0.0
 40
1.232362409364602
 50
238.55126803892111
 51
307.05331369788792
  0
ARC
  5
949F
  8
0
 10
49.255801424172851
 20
20.69277193677819
 30
0.0
 40
1.232362409364602
 50
262.60418394824779
 51
294.88135115402622
  0
ARC
  5
94A0
  8
0
 10
49.231249695207119
 20
32.966657489915477
 30
0.0
 40
7.878673262950155
 50
255.54816276908321
 51
261.47417530270462
  0
ARC
  5
94A1
  8
0
 10
49.231249695207119
 20
32.866657489915482
 30
0.0
 40
7.878673262950155
 50
255.54816276908321
 51
284.11790051444513
  0
ARC
  5
94A2
  8
0
 10
49.231249695207119
 20
32.766657489915481
 30
0.0
 40
7.878673262950155
 50
255.54816276908321
 51
284.11790051444513
  0
ARC
  5
94A3
  8
0
 10
49.231249695207119
 20
32.66665748991548
 30
0.0
 40
7.878673262950155
 50
255.54816276908321
 51
284.11790051444513
  0
ARC
  5
94A4
  8
0
 10
49.231249695207119
 20
32.566657489915471
 30
0.0
 40
7.878673262950155
 50
255.54816276908321
 51
284.11790051444513
  0
ARC
  5
94A5
  8
0
 10
49.231249695207119
 20
32.466657489915477
 30
0.0
 40
7.878673262950155
 50
255.54816276908321
 51
284.11790051444513
  0
LINE
  5
94A6
  8
0
 10
50.116042349127092
 20
26.425710721399469
 30
0.0
 11
50.116042349127092
 21
25.182516992174222
 31
0.0
  0
LINE
  5
94A7
  8
0
 10
50.66496419079094
 20
26.550661582652769
 30
0.0
 11
50.66022614801291
 21
25.26439615224777
 31
0.0
  0
LINE
  5
94A8
  8
0
 10
48.642702550200958
 20
26.365992981518751
 30
0.0
 11
48.642702550200873
 21
25.167315365595329
 31
0.0
  0
LINE
  5
94A9
  8
0
 10
48.001614379085353
 20
26.453391252808942
 30
0.0
 11
48.001614379085353
 21
25.212923086118781
 31
0.0
  0
LINE
  5
94AA
  8
0
 10
46.886537590304492
 20
26.970081007945179
 30
0.0
 11
46.886537590304492
 21
25.659152353249748
 31
0.0
  0
ARC
  5
94AB
  8
0
 10
49.231249695207119
 20
32.966657489915477
 30
0.0
 40
7.878673262950155
 50
272.89707638108729
 51
284.11790051444513
  0
LINE
  5
94AC
  8
0
 10
46.888216602571937
 20
27.46258761426941
 30
0.0
 11
47.715443203261188
 21
27.417986365748082
 31
0.0
  0
LINE
  5
94AD
  8
0
 10
46.870517542782899
 20
26.9722114369515
 30
0.0
 11
47.759681992014663
 21
26.853965736901351
 31
0.0
  0
LINE
  5
94AE
  8
0
 10
50.397624425893802
 20
27.417198900545198
 30
0.0
 11
51.257025765087292
 21
27.479030994404511
 31
0.0
  0
LINE
  5
94AF
  8
0
 10
50.462279264726313
 20
26.85206733525796
 30
0.0
 11
51.349022493490793
 21
26.971816762547469
 31
0.0
  0
ARC
  5
94B0
  8
0
 10
49.058284194476151
 20
33.37955270405768
 30
0.0
 40
6.1109324275231067
 50
257.30600020788449
 51
282.6603567027073
  0
ARC
  5
94B1
  8
0
 10
49.114748036786821
 20
32.216364037706441
 30
0.0
 40
5.5309600904519041
 50
255.8183711767532
 51
284.10113559904647
  0
ARC
  5
9535
  8
0
 10
49.022025936327239
 20
33.245617124920102
 30
0.0
 40
6.9012849738474937
 50
253.8130940123724
 51
286.87260935644281
  0
CIRCLE
  5
95B9
  8
0
 10
47.224329807055931
 20
27.189898600187721
 30
0.0
 40
0.1380629766675241
  0
POLYLINE
  5
95BA
  8
0
 66
     1
 10
0.0
 20
0.0
 30
0.0
 70
     8
  0
VERTEX
  5
95BB
  8
0
 10
47.226845765087283
 20
27.327890994404509
 30
0.0
 70
    32
  0
VERTEX
  5
95BC
  8
0
 10
47.225195765087292
 20
27.32778099440451
 30
0.0
 70
    32
  0
VERTEX
  5
95BD
  8
0
 10
47.22354576508728
 20
27.327340994404508
 30
0.0
 70
    32
  0
VERTEX
  5
95BE
  8
0
 10
47.22178576508729
 20
27.326570994404509
 30
0.0
 70
    32
  0
VERTEX
  5
95BF
  8
0
 10
47.220135765087292
 20
27.325470994404512
 30
0.0
 70
    32
  0
VERTEX
  5
95C0
  8
0
 10
47.218485765087287
 20
27.324040994404509
 30
0.0
 70
    32
  0
VERTEX
  5
95C1
  8
0
 10
47.216835765087303
 20
27.322170994404509
 30
0.0
 70
    32
  0
VERTEX
  5
95C2
  8
0
 10
47.215295765087291
 20
27.32008099440451
 30
0.0
 70
    32
  0
VERTEX
  5
95C3
  8
0
 10
47.213645765087293
 20
27.317770994404508
 30
0.0
 70
    32
  0
VERTEX
  5
95C4
  8
0
 10
47.212105765087287
 20
27.315020994404509
 30
0.0
 70
    32
  0
VERTEX
  5
95C5
  8
0
 10
47.210455765087282
 20
27.312050994404508
 30
0.0
 70
    32
  0
VERTEX
  5
95C6
  8
0
 10
47.20902576508729
 20
27.308640994404509
 30
0.0
 70
    32
  0
VERTEX
  5
95C7
  8
0
 10
47.207485765087277
 20
27.305120994404511
 30
0.0
 70
    32
  0
VERTEX
  5
95C8
  8
0
 10
47.206055765087278
 20
27.301270994404511
 30
0.0
 70
    32
  0
VERTEX
  5
95C9
  8
0
 10
47.204625765087293
 20
27.29709099440451
 30
0.0
 70
    32
  0
VERTEX
  5
95CA
  8
0
 10
47.203305765087279
 20
27.292690994404509
 30
0.0
 70
    32
  0
VERTEX
  5
95CB
  8
0
 10
47.201985765087286
 20
27.28807099440451
 30
0.0
 70
    32
  0
VERTEX
  5
95CC
  8
0
 10
47.20066576508728
 20
27.283120994404509
 30
0.0
 70
    32
  0
VERTEX
  5
95CD
  8
0
 10
47.199565765087293
 20
27.278060994404509
 30
0.0
 70
    32
  0
VERTEX
  5
95CE
  8
0
 10
47.198355765087292
 20
27.27278099440451
 30
0.0
 70
    32
  0
VERTEX
  5
95CF
  8
0
 10
47.197255765087291
 20
27.267280994404508
 30
0.0
 70
    32
  0
VERTEX
  5
95D0
  8
0
 10
47.19626576508729
 20
27.261560994404508
 30
0.0
 70
    32
  0
VERTEX
  5
95D1
  8
0
 10
47.195275765087288
 20
27.255620994404509
 30
0.0
 70
    32
  0
VERTEX
  5
95D2
  8
0
 10
47.194395765087293
 20
27.249570994404511
 30
0.0
 70
    32
  0
VERTEX
  5
95D3
  8
0
 10
47.19362576508729
 20
27.24341099440451
 30
0.0
 70
    32
  0
VERTEX
  5
95D4
  8
0
 10
47.19285576508728
 20
27.237140994404509
 30
0.0
 70
    32
  0
VERTEX
  5
95D5
  8
0
 10
47.192195765087291
 20
27.230760994404509
 30
0.0
 70
    32
  0
VERTEX
  5
95D6
  8
0
 10
47.191645765087287
 20
27.22416099440451
 30
0.0
 70
    32
  0
VERTEX
  5
95D7
  8
0
 10
47.19109576508729
 20
27.217560994404511
 30
0.0
 70
    32
  0
VERTEX
  5
95D8
  8
0
 10
47.190655765087293
 20
27.210960994404509
 30
0.0
 70
    32
  0
VERTEX
  5
95D9
  8
0
 10
47.190325765087287
 20
27.204250994404511
 30
0.0
 70
    32
  0
VERTEX
  5
95DA
  8
0
 10
47.190105765087281
 20
27.19743099440451
 30
0.0
 70
    32
  0
VERTEX
  5
95DB
  8
0
 10
47.18988576508729
 20
27.190720994404511
 30
0.0
 70
    32
  0
VERTEX
  5
95DC
  8
0
 10
47.18977576508729
 20
27.18390099440451
 30
0.0
 70
    32
  0
VERTEX
  5
95DD
  8
0
 10
47.189665765087291
 20
27.177190994404508
 30
0.0
 70
    32
  0
VERTEX
  5
95DE
  8
0
 10
47.18977576508729
 20
27.170370994404511
 30
0.0
 70
    32
  0
VERTEX
  5
95DF
  8
0
 10
47.18988576508729
 20
27.163770994404508
 30
0.0
 70
    32
  0
VERTEX
  5
95E0
  8
0
 10
47.190105765087281
 20
27.15706099440451
 30
0.0
 70
    32
  0
VERTEX
  5
95E1
  8
0
 10
47.190435765087287
 20
27.150570994404511
 30
0.0
 70
    32
  0
VERTEX
  5
95E2
  8
0
 10
47.190765765087292
 20
27.144080994404511
 30
0.0
 70
    32
  0
VERTEX
  5
95E3
  8
0
 10
47.191205765087282
 20
27.137810994404511
 30
0.0
 70
    32
  0
VERTEX
  5
95E4
  8
0
 10
47.191755765087279
 20
27.13154099440451
 30
0.0
 70
    32
  0
VERTEX
  5
95E5
  8
0
 10
47.192415765087283
 20
27.125490994404512
 30
0.0
 70
    32
  0
VERTEX
  5
95E6
  8
0
 10
47.193075765087279
 20
27.119550994404509
 30
0.0
 70
    32
  0
VERTEX
  5
95E7
  8
0
 10
47.193845765087289
 20
27.113830994404509
 30
0.0
 70
    32
  0
VERTEX
  5
95E8
  8
0
 10
47.194725765087277
 20
27.108330994404511
 30
0.0
 70
    32
  0
VERTEX
  5
95E9
  8
0
 10
47.195605765087294
 20
27.102940994404509
 30
0.0
 70
    32
  0
VERTEX
  5
95EA
  8
0
 10
47.196595765087288
 20
27.09777099440451
 30
0.0
 70
    32
  0
VERTEX
  5
95EB
  8
0
 10
47.19758576508729
 20
27.092820994404509
 30
0.0
 70
    32
  0
VERTEX
  5
95EC
  8
0
 10
47.198685765087291
 20
27.088200994404509
 30
0.0
 70
    32
  0
VERTEX
  5
95ED
  8
0
 10
47.199895765087291
 20
27.08369099440451
 30
0.0
 70
    32
  0
VERTEX
  5
95EE
  8
0
 10
47.201105765087277
 20
27.079510994404512
 30
0.0
 70
    32
  0
VERTEX
  5
95EF
  8
0
 10
47.202315765087278
 20
27.075550994404509
 30
0.0
 70
    32
  0
VERTEX
  5
95F0
  8
0
 10
47.203635765087292
 20
27.071920994404511
 30
0.0
 70
    32
  0
VERTEX
  5
95F1
  8
0
 10
47.205065765087291
 20
27.068510994404509
 30
0.0
 70
    32
  0
VERTEX
  5
95F2
  8
0
 10
47.206495765087283
 20
27.065430994404512
 30
0.0
 70
    32
  0
VERTEX
  5
95F3
  8
0
 10
47.207925765087289
 20
27.062680994404509
 30
0.0
 70
    32
  0
VERTEX
  5
95F4
  8
0
 10
47.209465765087288
 20
27.060260994404508
 30
0.0
 70
    32
  0
VERTEX
  5
95F5
  8
0
 10
47.210895765087287
 20
27.05806099440451
 30
0.0
 70
    32
  0
VERTEX
  5
95F6
  8
0
 10
47.212545765087292
 20
27.05619099440451
 30
0.0
 70
    32
  0
VERTEX
  5
95F7
  8
0
 10
47.21408576508729
 20
27.054650994404511
 30
0.0
 70
    32
  0
VERTEX
  5
95F8
  8
0
 10
47.215735765087281
 20
27.053440994404511
 30
0.0
 70
    32
  0
VERTEX
  5
95F9
  8
0
 10
47.217385765087279
 20
27.052670994404512
 30
0.0
 70
    32
  0
VERTEX
  5
95FA
  8
0
 10
47.219035765087277
 20
27.052120994404511
 30
0.0
 70
    32
  0
VERTEX
  5
95FB
  8
0
 10
47.220685765087282
 20
27.051900994404509
 30
0.0
 70
    32
  0
VERTEX
  5
95FC
  8
0
 10
47.22233576508728
 20
27.052010994404512
 30
0.0
 70
    32
  0
VERTEX
  5
95FD
  8
0
 10
47.223985765087278
 20
27.052450994404509
 30
0.0
 70
    32
  0
VERTEX
  5
95FE
  8
0
 10
47.225635765087283
 20
27.053220994404509
 30
0.0
 70
    32
  0
VERTEX
  5
95FF
  8
0
 10
47.227285765087281
 20
27.054430994404509
 30
0.0
 70
    32
  0
VERTEX
  5
9600
  8
0
 10
47.228935765087279
 20
27.055860994404512
 30
0.0
 70
    32
  0
VERTEX
  5
9601
  8
0
 10
47.230585765087291
 20
27.057620994404509
 30
0.0
 70
    32
  0
VERTEX
  5
9602
  8
0
 10
47.232235765087282
 20
27.059710994404512
 30
0.0
 70
    32
  0
VERTEX
  5
9603
  8
0
 10
47.23388576508728
 20
27.062130994404509
 30
0.0
 70
    32
  0
VERTEX
  5
9604
  8
0
 10
47.235425765087292
 20
27.064770994404508
 30
0.0
 70
    32
  0
VERTEX
  5
9605
  8
0
 10
47.236965765087291
 20
27.067850994404509
 30
0.0
 70
    32
  0
VERTEX
  5
9606
  8
0
 10
47.238505765087297
 20
27.071150994404508
 30
0.0
 70
    32
  0
VERTEX
  5
9607
  8
0
 10
47.240045765087281
 20
27.07467099440451
 30
0.0
 70
    32
  0
VERTEX
  5
9608
  8
0
 10
47.241475765087287
 20
27.07863099440452
 30
0.0
 70
    32
  0
VERTEX
  5
9609
  8
0
 10
47.242905765087293
 20
27.082700994404512
 30
0.0
 70
    32
  0
VERTEX
  5
960A
  8
0
 10
47.244225765087279
 20
27.087100994404508
 30
0.0
 70
    32
  0
VERTEX
  5
960B
  8
0
 10
47.245545765087293
 20
27.091720994404511
 30
0.0
 70
    32
  0
VERTEX
  5
960C
  8
0
 10
47.246755765087293
 20
27.096670994404509
 30
0.0
 70
    32
  0
VERTEX
  5
960D
  8
0
 10
47.247965765087287
 20
27.101730994404509
 30
0.0
 70
    32
  0
VERTEX
  5
960E
  8
0
 10
47.249175765087287
 20
27.107120994404511
 30
0.0
 70
    32
  0
VERTEX
  5
960F
  8
0
 10
47.250165765087281
 20
27.112620994404509
 30
0.0
 70
    32
  0
VERTEX
  5
9610
  8
0
 10
47.25126576508729
 20
27.118340994404509
 30
0.0
 70
    32
  0
VERTEX
  5
9611
  8
0
 10
47.252145765087292
 20
27.124170994404508
 30
0.0
 70
    32
  0
VERTEX
  5
9612
  8
0
 10
47.253025765087287
 20
27.13022099440451
 30
0.0
 70
    32
  0
VERTEX
  5
9613
  8
0
 10
47.253905765087282
 20
27.136380994404512
 30
0.0
 70
    32
  0
VERTEX
  5
9614
  8
0
 10
47.254565765087293
 20
27.142650994404509
 30
0.0
 70
    32
  0
VERTEX
  5
9615
  8
0
 10
47.255225765087289
 20
27.149140994404512
 30
0.0
 70
    32
  0
VERTEX
  5
9616
  8
0
 10
47.255885765087292
 20
27.155630994404511
 30
0.0
 70
    32
  0
VERTEX
  5
9617
  8
0
 10
47.256435765087289
 20
27.16223099440451
 30
0.0
 70
    32
  0
VERTEX
  5
9618
  8
0
 10
47.25676576508728
 20
27.168940994404512
 30
0.0
 70
    32
  0
VERTEX
  5
9619
  8
0
 10
47.257205765087292
 20
27.17565099440451
 30
0.0
 70
    32
  0
VERTEX
  5
961A
  8
0
 10
47.257425765087291
 20
27.182360994404512
 30
0.0
 70
    32
  0
VERTEX
  5
961B
  8
0
 10
47.25764576508729
 20
27.189180994404509
 30
0.0
 70
    32
  0
VERTEX
  5
961C
  8
0
 10
47.257755765087289
 20
27.195890994404511
 30
0.0
 70
    32
  0
VERTEX
  5
961D
  8
0
 10
47.257755765087289
 20
27.202710994404509
 30
0.0
 70
    32
  0
VERTEX
  5
961E
  8
0
 10
47.257755765087289
 20
27.20942099440451
 30
0.0
 70
    32
  0
VERTEX
  5
961F
  8
0
 10
47.257535765087283
 20
27.216130994404509
 30
0.0
 70
    32
  0
VERTEX
  5
9620
  8
0
 10
47.257425765087291
 20
27.222730994404511
 30
0.0
 70
    32
  0
VERTEX
  5
9621
  8
0
 10
47.257095765087293
 20
27.22922099440451
 30
0.0
 70
    32
  0
VERTEX
  5
9622
  8
0
 10
47.256655765087281
 20
27.23571099440451
 30
0.0
 70
    32
  0
VERTEX
  5
9623
  8
0
 10
47.25621576508729
 20
27.241980994404511
 30
0.0
 70
    32
  0
VERTEX
  5
9624
  8
0
 10
47.255665765087294
 20
27.248250994404511
 30
0.0
 70
    32
  0
VERTEX
  5
9625
  8
0
 10
47.255115765087282
 20
27.25430099440451
 30
0.0
 70
    32
  0
VERTEX
  5
9626
  8
0
 10
47.254455765087293
 20
27.260240994404509
 30
0.0
 70
    32
  0
VERTEX
  5
9627
  8
0
 10
47.25368576508729
 20
27.265960994404509
 30
0.0
 70
    32
  0
VERTEX
  5
9628
  8
0
 10
47.252805765087288
 20
27.271570994404509
 30
0.0
 70
    32
  0
VERTEX
  5
9629
  8
0
 10
47.251925765087293
 20
27.276850994404509
 30
0.0
 70
    32
  0
VERTEX
  5
962A
  8
0
 10
47.250935765087277
 20
27.282020994404508
 30
0.0
 70
    32
  0
VERTEX
  5
962B
  8
0
 10
47.24994576508729
 20
27.286970994404509
 30
0.0
 70
    32
  0
VERTEX
  5
962C
  8
0
 10
47.248845765087289
 20
27.291700994404511
 30
0.0
 70
    32
  0
VERTEX
  5
962D
  8
0
 10
47.247635765087288
 20
27.296100994404512
 30
0.0
 70
    32
  0
VERTEX
  5
962E
  8
0
 10
47.246425765087281
 20
27.30028099440451
 30
0.0
 70
    32
  0
VERTEX
  5
962F
  8
0
 10
47.245105765087303
 20
27.304240994404509
 30
0.0
 70
    32
  0
VERTEX
  5
9630
  8
0
 10
47.243785765087289
 20
27.30787099440451
 30
0.0
 70
    32
  0
VERTEX
  5
9631
  8
0
 10
47.242465765087282
 20
27.311280994404509
 30
0.0
 70
    32
  0
VERTEX
  5
9632
  8
0
 10
47.24103576508729
 20
27.31436099440451
 30
0.0
 70
    32
  0
VERTEX
  5
9633
  8
0
 10
47.23960576508729
 20
27.317110994404509
 30
0.0
 70
    32
  0
VERTEX
  5
9634
  8
0
 10
47.238065765087278
 20
27.319640994404509
 30
0.0
 70
    32
  0
VERTEX
  5
9635
  8
0
 10
47.236525765087293
 20
27.321730994404511
 30
0.0
 70
    32
  0
VERTEX
  5
9636
  8
0
 10
47.234985765087281
 20
27.323600994404512
 30
0.0
 70
    32
  0
VERTEX
  5
9637
  8
0
 10
47.233445765087282
 20
27.32514099440451
 30
0.0
 70
    32
  0
VERTEX
  5
9638
  8
0
 10
47.231795765087291
 20
27.32635099440451
 30
0.0
 70
    32
  0
VERTEX
  5
9639
  8
0
 10
47.230145765087279
 20
27.327230994404509
 30
0.0
 70
    32
  0
VERTEX
  5
963A
  8
0
 10
47.228495765087281
 20
27.32778099440451
 30
0.0
 70
    32
  0
VERTEX
  5
963B
  8
0
 10
47.226845765087283
 20
27.327890994404509
 30
0.0
 70
    32
  0
SEQEND
  5
963C
  8
0
  0
POLYLINE
  5
963D
  8
0
 66
     1
 10
0.0
 20
0.0
 30
0.0
 70
     8
  0
VERTEX
  5
963E
  8
0
 10
47.08626576508729
 20
27.19028099440451
 30
0.0
 70
    32
  0
VERTEX
  5
963F
  8
0
 10
47.086485765087282
 20
27.188630994404509
 30
0.0
 70
    32
  0
VERTEX
  5
9640
  8
0
 10
47.08692576508728
 20
27.186980994404511
 30
0.0
 70
    32
  0
VERTEX
  5
9641
  8
0
 10
47.087805765087289
 20
27.185440994404509
 30
0.0
 70
    32
  0
VERTEX
  5
9642
  8
0
 10
47.088905765087283
 20
27.183790994404511
 30
0.0
 70
    32
  0
VERTEX
  5
9643
  8
0
 10
47.090445765087289
 20
27.182140994404509
 30
0.0
 70
    32
  0
VERTEX
  5
9644
  8
0
 10
47.092205765087293
 20
27.180600994404511
 30
0.0
 70
    32
  0
VERTEX
  5
9645
  8
0
 10
47.094295765087281
 20
27.179060994404509
 30
0.0
 70
    32
  0
VERTEX
  5
9646
  8
0
 10
47.096825765087281
 20
27.17752099440451
 30
0.0
 70
    32
  0
VERTEX
  5
9647
  8
0
 10
47.099575765087287
 20
27.176090994404511
 30
0.0
 70
    32
  0
VERTEX
  5
9648
  8
0
 10
47.102545765087292
 20
27.174550994404509
 30
0.0
 70
    32
  0
VERTEX
  5
9649
  8
0
 10
47.105955765087288
 20
27.17312099440451
 30
0.0
 70
    32
  0
VERTEX
  5
964A
  8
0
 10
47.109585765087289
 20
27.17180099440451
 30
0.0
 70
    32
  0
VERTEX
  5
964B
  8
0
 10
47.113435765087289
 20
27.17048099440451
 30
0.0
 70
    32
  0
VERTEX
  5
964C
  8
0
 10
47.11761576508728
 20
27.16916099440451
 30
0.0
 70
    32
  0
VERTEX
  5
964D
  8
0
 10
47.122015765087291
 20
27.16795099440451
 30
0.0
 70
    32
  0
VERTEX
  5
964E
  8
0
 10
47.126745765087279
 20
27.16674099440451
 30
0.0
 70
    32
  0
VERTEX
  5
964F
  8
0
 10
47.131585765087287
 20
27.165640994404509
 30
0.0
 70
    32
  0
VERTEX
  5
9650
  8
0
 10
47.136755765087287
 20
27.164540994404511
 30
0.0
 70
    32
  0
VERTEX
  5
9651
  8
0
 10
47.142145765087292
 20
27.16355099440451
 30
0.0
 70
    32
  0
VERTEX
  5
9652
  8
0
 10
47.147645765087283
 20
27.162670994404511
 30
0.0
 70
    32
  0
VERTEX
  5
9653
  8
0
 10
47.15336576508728
 20
27.161790994404509
 30
0.0
 70
    32
  0
VERTEX
  5
9654
  8
0
 10
47.159305765087282
 20
27.16091099440451
 30
0.0
 70
    32
  0
VERTEX
  5
9655
  8
0
 10
47.165355765087291
 20
27.16025099440451
 30
0.0
 70
    32
  0
VERTEX
  5
9656
  8
0
 10
47.171515765087292
 20
27.15959099440451
 30
0.0
 70
    32
  0
VERTEX
  5
9657
  8
0
 10
47.177895765087293
 20
27.158930994404511
 30
0.0
 70
    32
  0
VERTEX
  5
9658
  8
0
 10
47.184275765087293
 20
27.158490994404509
 30
0.0
 70
    32
  0
VERTEX
  5
9659
  8
0
 10
47.190765765087292
 20
27.158050994404508
 30
0.0
 70
    32
  0
VERTEX
  5
965A
  8
0
 10
47.19747576508729
 20
27.15772099440451
 30
0.0
 70
    32
  0
VERTEX
  5
965B
  8
0
 10
47.204075765087289
 20
27.157390994404508
 30
0.0
 70
    32
  0
VERTEX
  5
965C
  8
0
 10
47.210785765087287
 20
27.157280994404509
 30
0.0
 70
    32
  0
VERTEX
  5
965D
  8
0
 10
47.217605765087278
 20
27.15706099440451
 30
0.0
 70
    32
  0
VERTEX
  5
965E
  8
0
 10
47.22431576508729
 20
27.15706099440451
 30
0.0
 70
    32
  0
VERTEX
  5
965F
  8
0
 10
47.231135765087288
 20
27.15717099440451
 30
0.0
 70
    32
  0
VERTEX
  5
9660
  8
0
 10
47.237845765087279
 20
27.157280994404509
 30
0.0
 70
    32
  0
VERTEX
  5
9661
  8
0
 10
47.244665765087277
 20
27.157500994404511
 30
0.0
 70
    32
  0
VERTEX
  5
9662
  8
0
 10
47.25126576508729
 20
27.15772099440451
 30
0.0
 70
    32
  0
VERTEX
  5
9663
  8
0
 10
47.257865765087288
 20
27.158160994404511
 30
0.0
 70
    32
  0
VERTEX
  5
9664
  8
0
 10
47.26446576508728
 20
27.158600994404509
 30
0.0
 70
    32
  0
VERTEX
  5
9665
  8
0
 10
47.270845765087287
 20
27.15904099440451
 30
0.0
 70
    32
  0
VERTEX
  5
9666
  8
0
 10
47.27722576508728
 20
27.15970099440451
 30
0.0
 70
    32
  0
VERTEX
  5
9667
  8
0
 10
47.283385765087282
 20
27.16036099440451
 30
0.0
 70
    32
  0
VERTEX
  5
9668
  8
0
 10
47.289435765087283
 20
27.161130994404509
 30
0.0
 70
    32
  0
VERTEX
  5
9669
  8
0
 10
47.295375765087293
 20
27.161900994404508
 30
0.0
 70
    32
  0
VERTEX
  5
966A
  8
0
 10
47.30109576508729
 20
27.16278099440451
 30
0.0
 70
    32
  0
VERTEX
  5
966B
  8
0
 10
47.30659576508728
 20
27.163770994404508
 30
0.0
 70
    32
  0
VERTEX
  5
966C
  8
0
 10
47.311985765087279
 20
27.16476099440451
 30
0.0
 70
    32
  0
VERTEX
  5
966D
  8
0
 10
47.317045765087293
 20
27.165750994404512
 30
0.0
 70
    32
  0
VERTEX
  5
966E
  8
0
 10
47.321995765087287
 20
27.166960994404509
 30
0.0
 70
    32
  0
VERTEX
  5
966F
  8
0
 10
47.326615765087283
 20
27.168170994404509
 30
0.0
 70
    32
  0
VERTEX
  5
9670
  8
0
 10
47.331125765087279
 20
27.169380994404509
 30
0.0
 70
    32
  0
VERTEX
  5
9671
  8
0
 10
47.335195765087292
 20
27.170700994404509
 30
0.0
 70
    32
  0
VERTEX
  5
9672
  8
0
 10
47.339155765087291
 20
27.172020994404509
 30
0.0
 70
    32
  0
VERTEX
  5
9673
  8
0
 10
47.342785765087292
 20
27.173340994404509
 30
0.0
 70
    32
  0
VERTEX
  5
9674
  8
0
 10
47.346085765087288
 20
27.174770994404511
 30
0.0
 70
    32
  0
VERTEX
  5
9675
  8
0
 10
47.349165765087292
 20
27.17631099440451
 30
0.0
 70
    32
  0
VERTEX
  5
9676
  8
0
 10
47.351915765087291
 20
27.177740994404509
 30
0.0
 70
    32
  0
VERTEX
  5
9677
  8
0
 10
47.354335765087292
 20
27.179280994404511
 30
0.0
 70
    32
  0
VERTEX
  5
9678
  8
0
 10
47.356425765087288
 20
27.18082099440451
 30
0.0
 70
    32
  0
VERTEX
  5
9679
  8
0
 10
47.358295765087291
 20
27.182470994404511
 30
0.0
 70
    32
  0
VERTEX
  5
967A
  8
0
 10
47.35972576508729
 20
27.18401099440451
 30
0.0
 70
    32
  0
VERTEX
  5
967B
  8
0
 10
47.360935765087291
 20
27.185660994404511
 30
0.0
 70
    32
  0
VERTEX
  5
967C
  8
0
 10
47.361705765087287
 20
27.187310994404509
 30
0.0
 70
    32
  0
VERTEX
  5
967D
  8
0
 10
47.362255765087284
 20
27.188960994404511
 30
0.0
 70
    32
  0
VERTEX
  5
967E
  8
0
 10
47.362365765087283
 20
27.190500994404509
 30
0.0
 70
    32
  0
VERTEX
  5
967F
  8
0
 10
47.362255765087284
 20
27.192150994404511
 30
0.0
 70
    32
  0
VERTEX
  5
9680
  8
0
 10
47.361705765087287
 20
27.193800994404508
 30
0.0
 70
    32
  0
VERTEX
  5
9681
  8
0
 10
47.360935765087291
 20
27.19545099440451
 30
0.0
 70
    32
  0
VERTEX
  5
9682
  8
0
 10
47.35972576508729
 20
27.197100994404511
 30
0.0
 70
    32
  0
VERTEX
  5
9683
  8
0
 10
47.358295765087291
 20
27.19864099440451
 30
0.0
 70
    32
  0
VERTEX
  5
9684
  8
0
 10
47.356425765087288
 20
27.200180994404509
 30
0.0
 70
    32
  0
VERTEX
  5
9685
  8
0
 10
47.354335765087292
 20
27.201720994404511
 30
0.0
 70
    32
  0
VERTEX
  5
9686
  8
0
 10
47.351915765087291
 20
27.203260994404509
 30
0.0
 70
    32
  0
VERTEX
  5
9687
  8
0
 10
47.349165765087292
 20
27.204800994404511
 30
0.0
 70
    32
  0
VERTEX
  5
9688
  8
0
 10
47.346085765087288
 20
27.20623099440451
 30
0.0
 70
    32
  0
VERTEX
  5
9689
  8
0
 10
47.342785765087292
 20
27.20766099440451
 30
0.0
 70
    32
  0
VERTEX
  5
968A
  8
0
 10
47.339155765087291
 20
27.209090994404509
 30
0.0
 70
    32
  0
VERTEX
  5
968B
  8
0
 10
47.335195765087292
 20
27.210410994404509
 30
0.0
 70
    32
  0
VERTEX
  5
968C
  8
0
 10
47.331015765087287
 20
27.211620994404509
 30
0.0
 70
    32
  0
VERTEX
  5
968D
  8
0
 10
47.326615765087283
 20
27.212940994404509
 30
0.0
 70
    32
  0
VERTEX
  5
968E
  8
0
 10
47.321885765087281
 20
27.21404099440451
 30
0.0
 70
    32
  0
VERTEX
  5
968F
  8
0
 10
47.317045765087293
 20
27.21525099440451
 30
0.0
 70
    32
  0
VERTEX
  5
9690
  8
0
 10
47.311875765087287
 20
27.216240994404512
 30
0.0
 70
    32
  0
VERTEX
  5
9691
  8
0
 10
47.30659576508728
 20
27.21723099440451
 30
0.0
 70
    32
  0
VERTEX
  5
9692
  8
0
 10
47.30098576508729
 20
27.218220994404511
 30
0.0
 70
    32
  0
VERTEX
  5
9693
  8
0
 10
47.295265765087279
 20
27.21910099440451
 30
0.0
 70
    32
  0
VERTEX
  5
9694
  8
0
 10
47.289435765087283
 20
27.219870994404509
 30
0.0
 70
    32
  0
VERTEX
  5
9695
  8
0
 10
47.283275765087282
 20
27.220640994404508
 30
0.0
 70
    32
  0
VERTEX
  5
9696
  8
0
 10
47.277115765087288
 20
27.221300994404508
 30
0.0
 70
    32
  0
VERTEX
  5
9697
  8
0
 10
47.270845765087287
 20
27.221850994404509
 30
0.0
 70
    32
  0
VERTEX
  5
9698
  8
0
 10
47.264355765087302
 20
27.222400994404509
 30
0.0
 70
    32
  0
VERTEX
  5
9699
  8
0
 10
47.257865765087288
 20
27.22284099440451
 30
0.0
 70
    32
  0
VERTEX
  5
969A
  8
0
 10
47.25126576508729
 20
27.223170994404509
 30
0.0
 70
    32
  0
VERTEX
  5
969B
  8
0
 10
47.244555765087291
 20
27.223390994404511
 30
0.0
 70
    32
  0
VERTEX
  5
969C
  8
0
 10
47.237845765087279
 20
27.22361099440451
 30
0.0
 70
    32
  0
VERTEX
  5
969D
  8
0
 10
47.231025765087281
 20
27.223720994404509
 30
0.0
 70
    32
  0
VERTEX
  5
969E
  8
0
 10
47.22431576508729
 20
27.223720994404509
 30
0.0
 70
    32
  0
VERTEX
  5
969F
  8
0
 10
47.217495765087293
 20
27.223720994404509
 30
0.0
 70
    32
  0
VERTEX
  5
96A0
  8
0
 10
47.210785765087287
 20
27.22361099440451
 30
0.0
 70
    32
  0
VERTEX
  5
96A1
  8
0
 10
47.204075765087289
 20
27.223390994404511
 30
0.0
 70
    32
  0
VERTEX
  5
96A2
  8
0
 10
47.197365765087277
 20
27.223060994404509
 30
0.0
 70
    32
  0
VERTEX
  5
96A3
  8
0
 10
47.190765765087292
 20
27.222730994404511
 30
0.0
 70
    32
  0
VERTEX
  5
96A4
  8
0
 10
47.184275765087293
 20
27.22229099440451
 30
0.0
 70
    32
  0
VERTEX
  5
96A5
  8
0
 10
47.177785765087279
 20
27.221740994404509
 30
0.0
 70
    32
  0
VERTEX
  5
96A6
  8
0
 10
47.171515765087292
 20
27.221190994404509
 30
0.0
 70
    32
  0
VERTEX
  5
96A7
  8
0
 10
47.165245765087292
 20
27.220530994404509
 30
0.0
 70
    32
  0
VERTEX
  5
96A8
  8
0
 10
47.15919576508729
 20
27.21976099440451
 30
0.0
 70
    32
  0
VERTEX
  5
96A9
  8
0
 10
47.15336576508728
 20
27.218990994404511
 30
0.0
 70
    32
  0
VERTEX
  5
96AA
  8
0
 10
47.147645765087283
 20
27.218110994404508
 30
0.0
 70
    32
  0
VERTEX
  5
96AB
  8
0
 10
47.142035765087293
 20
27.21712099440451
 30
0.0
 70
    32
  0
VERTEX
  5
96AC
  8
0
 10
47.136755765087287
 20
27.216130994404509
 30
0.0
 70
    32
  0
VERTEX
  5
96AD
  8
0
 10
47.131585765087287
 20
27.215030994404511
 30
0.0
 70
    32
  0
VERTEX
  5
96AE
  8
0
 10
47.126635765087293
 20
27.21393099440451
 30
0.0
 70
    32
  0
VERTEX
  5
96AF
  8
0
 10
47.122015765087291
 20
27.21272099440451
 30
0.0
 70
    32
  0
VERTEX
  5
96B0
  8
0
 10
47.11761576508728
 20
27.211510994404509
 30
0.0
 70
    32
  0
VERTEX
  5
96B1
  8
0
 10
47.113435765087289
 20
27.21019099440451
 30
0.0
 70
    32
  0
VERTEX
  5
96B2
  8
0
 10
47.109475765087289
 20
27.20887099440451
 30
0.0
 70
    32
  0
VERTEX
  5
96B3
  8
0
 10
47.105845765087281
 20
27.207440994404511
 30
0.0
 70
    32
  0
VERTEX
  5
96B4
  8
0
 10
47.102545765087292
 20
27.206010994404512
 30
0.0
 70
    32
  0
VERTEX
  5
96B5
  8
0
 10
47.099465765087288
 20
27.204580994404509
 30
0.0
 70
    32
  0
VERTEX
  5
96B6
  8
0
 10
47.096715765087282
 20
27.20304099440451
 30
0.0
 70
    32
  0
VERTEX
  5
96B7
  8
0
 10
47.094295765087281
 20
27.201500994404508
 30
0.0
 70
    32
  0
VERTEX
  5
96B8
  8
0
 10
47.092205765087293
 20
27.19996099440451
 30
0.0
 70
    32
  0
VERTEX
  5
96B9
  8
0
 10
47.090445765087289
 20
27.198420994404511
 30
0.0
 70
    32
  0
VERTEX
  5
96BA
  8
0
 10
47.088905765087283
 20
27.19677099440451
 30
0.0
 70
    32
  0
VERTEX
  5
96BB
  8
0
 10
47.087805765087289
 20
27.195230994404511
 30
0.0
 70
    32
  0
VERTEX
  5
96BC
  8
0
 10
47.08692576508728
 20
27.19358099440451
 30
0.0
 70
    32
  0
VERTEX
  5
96BD
  8
0
 10
47.086485765087282
 20
27.191930994404508
 30
0.0
 70
    32
  0
VERTEX
  5
96BE
  8
0
 10
47.08626576508729
 20
27.19028099440451
 30
0.0
 70
    32
  0
SEQEND
  5
96BF
  8
0
  0
POLYLINE
  5
96C0
  8
0
 66
     1
 10
0.0
 20
0.0
 30
0.0
 70
     8
  0
VERTEX
  5
96C1
  8
0
 10
50.827805765087291
 20
27.17697099440451
 30
0.0
 70
    32
  0
VERTEX
  5
96C2
  8
0
 10
50.82791576508729
 20
27.175430994404511
 30
0.0
 70
    32
  0
VERTEX
  5
96C3
  8
0
 10
50.82846576508728
 20
27.17378099440451
 30
0.0
 70
    32
  0
VERTEX
  5
96C4
  8
0
 10
50.82923576508729
 20
27.172130994404512
 30
0.0
 70
    32
  0
VERTEX
  5
96C5
  8
0
 10
50.830445765087291
 20
27.17048099440451
 30
0.0
 70
    32
  0
VERTEX
  5
96C6
  8
0
 10
50.831985765087289
 20
27.168940994404512
 30
0.0
 70
    32
  0
VERTEX
  5
96C7
  8
0
 10
50.833745765087293
 20
27.16729099440451
 30
0.0
 70
    32
  0
VERTEX
  5
96C8
  8
0
 10
50.835835765087289
 20
27.165750994404512
 30
0.0
 70
    32
  0
VERTEX
  5
96C9
  8
0
 10
50.838365765087289
 20
27.164320994404509
 30
0.0
 70
    32
  0
VERTEX
  5
96CA
  8
0
 10
50.841005765087289
 20
27.16278099440451
 30
0.0
 70
    32
  0
VERTEX
  5
96CB
  8
0
 10
50.844085765087293
 20
27.161350994404511
 30
0.0
 70
    32
  0
VERTEX
  5
96CC
  8
0
 10
50.847495765087288
 20
27.159920994404509
 30
0.0
 70
    32
  0
VERTEX
  5
96CD
  8
0
 10
50.851125765087289
 20
27.158490994404509
 30
0.0
 70
    32
  0
VERTEX
  5
96CE
  8
0
 10
50.854975765087282
 20
27.15717099440451
 30
0.0
 70
    32
  0
VERTEX
  5
96CF
  8
0
 10
50.859155765087287
 20
27.15585099440451
 30
0.0
 70
    32
  0
VERTEX
  5
96D0
  8
0
 10
50.863555765087291
 20
27.15464099440451
 30
0.0
 70
    32
  0
VERTEX
  5
96D1
  8
0
 10
50.868285765087293
 20
27.153430994404509
 30
0.0
 70
    32
  0
VERTEX
  5
96D2
  8
0
 10
50.873125765087288
 20
27.152330994404512
 30
0.0
 70
    32
  0
VERTEX
  5
96D3
  8
0
 10
50.87829576508728
 20
27.15134099440451
 30
0.0
 70
    32
  0
VERTEX
  5
96D4
  8
0
 10
50.883685765087279
 20
27.150240994404509
 30
0.0
 70
    32
  0
VERTEX
  5
96D5
  8
0
 10
50.889185765087291
 20
27.14936099440451
 30
0.0
 70
    32
  0
VERTEX
  5
96D6
  8
0
 10
50.894905765087302
 20
27.148480994404508
 30
0.0
 70
    32
  0
VERTEX
  5
96D7
  8
0
 10
50.90084576508729
 20
27.147710994404509
 30
0.0
 70
    32
  0
VERTEX
  5
96D8
  8
0
 10
50.906895765087292
 20
27.14694099440451
 30
0.0
 70
    32
  0
VERTEX
  5
96D9
  8
0
 10
50.913055765087293
 20
27.14628099440451
 30
0.0
 70
    32
  0
VERTEX
  5
96DA
  8
0
 10
50.919325765087279
 20
27.145730994404509
 30
0.0
 70
    32
  0
VERTEX
  5
96DB
  8
0
 10
50.925815765087293
 20
27.145180994404509
 30
0.0
 70
    32
  0
VERTEX
  5
96DC
  8
0
 10
50.932305765087293
 20
27.144740994404511
 30
0.0
 70
    32
  0
VERTEX
  5
96DD
  8
0
 10
50.938905765087291
 20
27.14441099440451
 30
0.0
 70
    32
  0
VERTEX
  5
96DE
  8
0
 10
50.94561576508729
 20
27.144190994404511
 30
0.0
 70
    32
  0
VERTEX
  5
96DF
  8
0
 10
50.952325765087281
 20
27.143970994404508
 30
0.0
 70
    32
  0
VERTEX
  5
96E0
  8
0
 10
50.959145765087293
 20
27.143860994404509
 30
0.0
 70
    32
  0
VERTEX
  5
96E1
  8
0
 10
50.965855765087277
 20
27.143860994404509
 30
0.0
 70
    32
  0
VERTEX
  5
96E2
  8
0
 10
50.972675765087288
 20
27.143860994404509
 30
0.0
 70
    32
  0
VERTEX
  5
96E3
  8
0
 10
50.979385765087287
 20
27.143970994404508
 30
0.0
 70
    32
  0
VERTEX
  5
96E4
  8
0
 10
50.986095765087278
 20
27.144190994404511
 30
0.0
 70
    32
  0
VERTEX
  5
96E5
  8
0
 10
50.99280576508729
 20
27.144520994404509
 30
0.0
 70
    32
  0
VERTEX
  5
96E6
  8
0
 10
50.999405765087282
 20
27.144850994404511
 30
0.0
 70
    32
  0
VERTEX
  5
96E7
  8
0
 10
51.006005765087281
 20
27.145290994404512
 30
0.0
 70
    32
  0
VERTEX
  5
96E8
  8
0
 10
51.012385765087302
 20
27.145840994404509
 30
0.0
 70
    32
  0
VERTEX
  5
96E9
  8
0
 10
51.018765765087288
 20
27.146390994404509
 30
0.0
 70
    32
  0
VERTEX
  5
96EA
  8
0
 10
51.024925765087303
 20
27.147050994404509
 30
0.0
 70
    32
  0
VERTEX
  5
96EB
  8
0
 10
51.030975765087291
 20
27.147820994404508
 30
0.0
 70
    32
  0
VERTEX
  5
96EC
  8
0
 10
51.036805765087287
 20
27.148590994404511
 30
0.0
 70
    32
  0
VERTEX
  5
96ED
  8
0
 10
51.04263576508729
 20
27.14947099440451
 30
0.0
 70
    32
  0
VERTEX
  5
96EE
  8
0
 10
51.048135765087281
 20
27.150460994404511
 30
0.0
 70
    32
  0
VERTEX
  5
96EF
  8
0
 10
51.053415765087287
 20
27.151450994404509
 30
0.0
 70
    32
  0
VERTEX
  5
96F0
  8
0
 10
51.058585765087301
 20
27.15255099440451
 30
0.0
 70
    32
  0
VERTEX
  5
96F1
  8
0
 10
51.063535765087302
 20
27.153650994404511
 30
0.0
 70
    32
  0
VERTEX
  5
96F2
  8
0
 10
51.06815576508729
 20
27.154860994404508
 30
0.0
 70
    32
  0
VERTEX
  5
96F3
  8
0
 10
51.072555765087287
 20
27.156070994404509
 30
0.0
 70
    32
  0
VERTEX
  5
96F4
  8
0
 10
51.076735765087292
 20
27.157390994404508
 30
0.0
 70
    32
  0
VERTEX
  5
96F5
  8
0
 10
51.080695765087292
 20
27.158710994404512
 30
0.0
 70
    32
  0
VERTEX
  5
96F6
  8
0
 10
51.084325765087293
 20
27.160140994404511
 30
0.0
 70
    32
  0
VERTEX
  5
96F7
  8
0
 10
51.087625765087289
 20
27.16157099440451
 30
0.0
 70
    32
  0
VERTEX
  5
96F8
  8
0
 10
51.090705765087279
 20
27.163000994404509
 30
0.0
 70
    32
  0
VERTEX
  5
96F9
  8
0
 10
51.093455765087292
 20
27.164540994404511
 30
0.0
 70
    32
  0
VERTEX
  5
96FA
  8
0
 10
51.095875765087293
 20
27.16608099440451
 30
0.0
 70
    32
  0
VERTEX
  5
96FB
  8
0
 10
51.097965765087281
 20
27.167620994404508
 30
0.0
 70
    32
  0
VERTEX
  5
96FC
  8
0
 10
51.099835765087278
 20
27.16916099440451
 30
0.0
 70
    32
  0
VERTEX
  5
96FD
  8
0
 10
51.101265765087291
 20
27.170810994404508
 30
0.0
 70
    32
  0
VERTEX
  5
96FE
  8
0
 10
51.102475765087291
 20
27.172350994404511
 30
0.0
 70
    32
  0
VERTEX
  5
96FF
  8
0
 10
51.103245765087287
 20
27.174000994404508
 30
0.0
 70
    32
  0
VERTEX
  5
9700
  8
0
 10
51.103795765087291
 20
27.17565099440451
 30
0.0
 70
    32
  0
VERTEX
  5
9701
  8
0
 10
51.103905765087291
 20
27.177300994404511
 30
0.0
 70
    32
  0
VERTEX
  5
9702
  8
0
 10
51.103795765087291
 20
27.178950994404509
 30
0.0
 70
    32
  0
VERTEX
  5
9703
  8
0
 10
51.103245765087287
 20
27.180490994404511
 30
0.0
 70
    32
  0
VERTEX
  5
9704
  8
0
 10
51.102365765087292
 20
27.182140994404509
 30
0.0
 70
    32
  0
VERTEX
  5
9705
  8
0
 10
51.101265765087291
 20
27.183790994404511
 30
0.0
 70
    32
  0
VERTEX
  5
9706
  8
0
 10
51.099725765087292
 20
27.185330994404509
 30
0.0
 70
    32
  0
VERTEX
  5
9707
  8
0
 10
51.097965765087281
 20
27.186980994404511
 30
0.0
 70
    32
  0
VERTEX
  5
9708
  8
0
 10
51.095875765087293
 20
27.188520994404509
 30
0.0
 70
    32
  0
VERTEX
  5
9709
  8
0
 10
51.093345765087292
 20
27.190060994404512
 30
0.0
 70
    32
  0
VERTEX
  5
970A
  8
0
 10
51.090595765087294
 20
27.191490994404511
 30
0.0
 70
    32
  0
VERTEX
  5
970B
  8
0
 10
51.087625765087289
 20
27.19292099440451
 30
0.0
 70
    32
  0
VERTEX
  5
970C
  8
0
 10
51.084215765087293
 20
27.194350994404509
 30
0.0
 70
    32
  0
VERTEX
  5
970D
  8
0
 10
51.080585765087292
 20
27.195780994404512
 30
0.0
 70
    32
  0
VERTEX
  5
970E
  8
0
 10
51.076735765087292
 20
27.197100994404511
 30
0.0
 70
    32
  0
VERTEX
  5
970F
  8
0
 10
51.072555765087287
 20
27.198420994404511
 30
0.0
 70
    32
  0
VERTEX
  5
9710
  8
0
 10
51.06815576508729
 20
27.199630994404512
 30
0.0
 70
    32
  0
VERTEX
  5
9711
  8
0
 10
51.063425765087288
 20
27.200840994404508
 30
0.0
 70
    32
  0
VERTEX
  5
9712
  8
0
 10
51.058585765087301
 20
27.201940994404509
 30
0.0
 70
    32
  0
VERTEX
  5
9713
  8
0
 10
51.053415765087287
 20
27.20304099440451
 30
0.0
 70
    32
  0
VERTEX
  5
9714
  8
0
 10
51.048025765087289
 20
27.204030994404508
 30
0.0
 70
    32
  0
VERTEX
  5
9715
  8
0
 10
51.042525765087291
 20
27.204910994404511
 30
0.0
 70
    32
  0
VERTEX
  5
9716
  8
0
 10
51.036805765087287
 20
27.205790994404509
 30
0.0
 70
    32
  0
VERTEX
  5
9717
  8
0
 10
51.030865765087277
 20
27.206560994404509
 30
0.0
 70
    32
  0
VERTEX
  5
9718
  8
0
 10
51.02481576508729
 20
27.207330994404511
 30
0.0
 70
    32
  0
VERTEX
  5
9719
  8
0
 10
51.018655765087281
 20
27.207990994404511
 30
0.0
 70
    32
  0
VERTEX
  5
971A
  8
0
 10
51.012385765087302
 20
27.208540994404508
 30
0.0
 70
    32
  0
VERTEX
  5
971B
  8
0
 10
51.005895765087288
 20
27.209090994404509
 30
0.0
 70
    32
  0
VERTEX
  5
971C
  8
0
 10
50.999405765087282
 20
27.20953099440452
 30
0.0
 70
    32
  0
VERTEX
  5
971D
  8
0
 10
50.99280576508729
 20
27.209860994404512
 30
0.0
 70
    32
  0
VERTEX
  5
971E
  8
0
 10
50.986095765087278
 20
27.21019099440451
 30
0.0
 70
    32
  0
VERTEX
  5
971F
  8
0
 10
50.979385765087287
 20
27.210300994404509
 30
0.0
 70
    32
  0
VERTEX
  5
9720
  8
0
 10
50.972565765087289
 20
27.210410994404509
 30
0.0
 70
    32
  0
VERTEX
  5
9721
  8
0
 10
50.965855765087277
 20
27.210520994404511
 30
0.0
 70
    32
  0
VERTEX
  5
9722
  8
0
 10
50.959035765087279
 20
27.210410994404509
 30
0.0
 70
    32
  0
VERTEX
  5
9723
  8
0
 10
50.952325765087281
 20
27.210300994404509
 30
0.0
 70
    32
  0
VERTEX
  5
9724
  8
0
 10
50.94561576508729
 20
27.21008099440451
 30
0.0
 70
    32
  0
VERTEX
  5
9725
  8
0
 10
50.938905765087291
 20
27.209860994404512
 30
0.0
 70
    32
  0
VERTEX
  5
9726
  8
0
 10
50.932305765087293
 20
27.20942099440451
 30
0.0
 70
    32
  0
VERTEX
  5
9727
  8
0
 10
50.925705765087287
 20
27.208980994404509
 30
0.0
 70
    32
  0
VERTEX
  5
9728
  8
0
 10
50.919325765087279
 20
27.208540994404508
 30
0.0
 70
    32
  0
VERTEX
  5
9729
  8
0
 10
50.912945765087287
 20
27.207880994404508
 30
0.0
 70
    32
  0
VERTEX
  5
972A
  8
0
 10
50.906785765087292
 20
27.207220994404508
 30
0.0
 70
    32
  0
VERTEX
  5
972B
  8
0
 10
50.90073576508729
 20
27.206450994404509
 30
0.0
 70
    32
  0
VERTEX
  5
972C
  8
0
 10
50.894795765087288
 20
27.20568099440451
 30
0.0
 70
    32
  0
VERTEX
  5
972D
  8
0
 10
50.889075765087291
 20
27.204800994404511
 30
0.0
 70
    32
  0
VERTEX
  5
972E
  8
0
 10
50.883575765087294
 20
27.20381099440451
 30
0.0
 70
    32
  0
VERTEX
  5
972F
  8
0
 10
50.87829576508728
 20
27.202820994404512
 30
0.0
 70
    32
  0
VERTEX
  5
9730
  8
0
 10
50.873125765087288
 20
27.201720994404511
 30
0.0
 70
    32
  0
VERTEX
  5
9731
  8
0
 10
50.86817576508728
 20
27.20062099440451
 30
0.0
 70
    32
  0
VERTEX
  5
9732
  8
0
 10
50.863555765087291
 20
27.199410994404509
 30
0.0
 70
    32
  0
VERTEX
  5
9733
  8
0
 10
50.859155765087287
 20
27.198200994404509
 30
0.0
 70
    32
  0
VERTEX
  5
9734
  8
0
 10
50.854975765087282
 20
27.196880994404509
 30
0.0
 70
    32
  0
VERTEX
  5
9735
  8
0
 10
50.85101576508729
 20
27.195560994404509
 30
0.0
 70
    32
  0
VERTEX
  5
9736
  8
0
 10
50.847385765087303
 20
27.19413099440451
 30
0.0
 70
    32
  0
VERTEX
  5
9737
  8
0
 10
50.844085765087293
 20
27.192700994404511
 30
0.0
 70
    32
  0
VERTEX
  5
9738
  8
0
 10
50.841005765087289
 20
27.191270994404508
 30
0.0
 70
    32
  0
VERTEX
  5
9739
  8
0
 10
50.83825576508729
 20
27.18973099440451
 30
0.0
 70
    32
  0
VERTEX
  5
973A
  8
0
 10
50.835835765087289
 20
27.188300994404511
 30
0.0
 70
    32
  0
VERTEX
  5
973B
  8
0
 10
50.833745765087293
 20
27.186650994404509
 30
0.0
 70
    32
  0
VERTEX
  5
973C
  8
0
 10
50.831875765087297
 20
27.185110994404511
 30
0.0
 70
    32
  0
VERTEX
  5
973D
  8
0
 10
50.830445765087291
 20
27.183570994404509
 30
0.0
 70
    32
  0
VERTEX
  5
973E
  8
0
 10
50.82923576508729
 20
27.181920994404511
 30
0.0
 70
    32
  0
VERTEX
  5
973F
  8
0
 10
50.82846576508728
 20
27.180270994404509
 30
0.0
 70
    32
  0
VERTEX
  5
9740
  8
0
 10
50.82791576508729
 20
27.178620994404511
 30
0.0
 70
    32
  0
VERTEX
  5
9741
  8
0
 10
50.827805765087291
 20
27.17697099440451
 30
0.0
 70
    32
  0
SEQEND
  5
9742
  8
0
  0
POLYLINE
  5
9743
  8
0
 66
     1
 10
0.0
 20
0.0
 30
0.0
 70
     8
  0
VERTEX
  5
9744
  8
0
 10
50.968385765087291
 20
27.314690994404511
 30
0.0
 70
    32
  0
VERTEX
  5
9745
  8
0
 10
50.966735765087293
 20
27.314580994404508
 30
0.0
 70
    32
  0
VERTEX
  5
9746
  8
0
 10
50.964975765087289
 20
27.314030994404511
 30
0.0
 70
    32
  0
VERTEX
  5
9747
  8
0
 10
50.963325765087291
 20
27.313260994404509
 30
0.0
 70
    32
  0
VERTEX
  5
9748
  8
0
 10
50.961675765087293
 20
27.312160994404511
 30
0.0
 70
    32
  0
VERTEX
  5
9749
  8
0
 10
50.960025765087288
 20
27.310730994404508
 30
0.0
 70
    32
  0
VERTEX
  5
974A
  8
0
 10
50.95837576508729
 20
27.308970994404511
 30
0.0
 70
    32
  0
VERTEX
  5
974B
  8
0
 10
50.956725765087292
 20
27.306880994404509
 30
0.0
 70
    32
  0
VERTEX
  5
974C
  8
0
 10
50.955185765087293
 20
27.304460994404511
 30
0.0
 70
    32
  0
VERTEX
  5
974D
  8
0
 10
50.953535765087288
 20
27.301710994404509
 30
0.0
 70
    32
  0
VERTEX
  5
974E
  8
0
 10
50.95199576508729
 20
27.298740994404511
 30
0.0
 70
    32
  0
VERTEX
  5
974F
  8
0
 10
50.950455765087291
 20
27.295440994404512
 30
0.0
 70
    32
  0
VERTEX
  5
9750
  8
0
 10
50.949025765087292
 20
27.291810994404511
 30
0.0
 70
    32
  0
VERTEX
  5
9751
  8
0
 10
50.947595765087293
 20
27.287960994404511
 30
0.0
 70
    32
  0
VERTEX
  5
9752
  8
0
 10
50.946165765087287
 20
27.283780994404509
 30
0.0
 70
    32
  0
VERTEX
  5
9753
  8
0
 10
50.944845765087301
 20
27.279380994404509
 30
0.0
 70
    32
  0
VERTEX
  5
9754
  8
0
 10
50.943525765087287
 20
27.27476099440451
 30
0.0
 70
    32
  0
VERTEX
  5
9755
  8
0
 10
50.942205765087287
 20
27.269920994404512
 30
0.0
 70
    32
  0
VERTEX
  5
9756
  8
0
 10
50.94099576508728
 20
27.264750994404508
 30
0.0
 70
    32
  0
VERTEX
  5
9757
  8
0
 10
50.939895765087293
 20
27.259470994404509
 30
0.0
 70
    32
  0
VERTEX
  5
9758
  8
0
 10
50.938795765087292
 20
27.253970994404511
 30
0.0
 70
    32
  0
VERTEX
  5
9759
  8
0
 10
50.93780576508729
 20
27.248250994404511
 30
0.0
 70
    32
  0
VERTEX
  5
975A
  8
0
 10
50.936815765087282
 20
27.242420994404512
 30
0.0
 70
    32
  0
VERTEX
  5
975B
  8
0
 10
50.935935765087287
 20
27.23637099440451
 30
0.0
 70
    32
  0
VERTEX
  5
975C
  8
0
 10
50.935165765087291
 20
27.230210994404509
 30
0.0
 70
    32
  0
VERTEX
  5
975D
  8
0
 10
50.934395765087281
 20
27.223830994404508
 30
0.0
 70
    32
  0
VERTEX
  5
975E
  8
0
 10
50.933735765087292
 20
27.217450994404508
 30
0.0
 70
    32
  0
VERTEX
  5
975F
  8
0
 10
50.933185765087281
 20
27.210960994404509
 30
0.0
 70
    32
  0
VERTEX
  5
9760
  8
0
 10
50.932635765087291
 20
27.20436099440451
 30
0.0
 70
    32
  0
VERTEX
  5
9761
  8
0
 10
50.932195765087293
 20
27.197650994404508
 30
0.0
 70
    32
  0
VERTEX
  5
9762
  8
0
 10
50.931865765087288
 20
27.19094099440451
 30
0.0
 70
    32
  0
VERTEX
  5
9763
  8
0
 10
50.93153576508729
 20
27.184120994404509
 30
0.0
 70
    32
  0
VERTEX
  5
9764
  8
0
 10
50.93142576508729
 20
27.177410994404511
 30
0.0
 70
    32
  0
VERTEX
  5
9765
  8
0
 10
50.931315765087291
 20
27.17059099440451
 30
0.0
 70
    32
  0
VERTEX
  5
9766
  8
0
 10
50.931205765087292
 20
27.163880994404511
 30
0.0
 70
    32
  0
VERTEX
  5
9767
  8
0
 10
50.931315765087291
 20
27.15717099440451
 30
0.0
 70
    32
  0
VERTEX
  5
9768
  8
0
 10
50.93142576508729
 20
27.150460994404511
 30
0.0
 70
    32
  0
VERTEX
  5
9769
  8
0
 10
50.931645765087289
 20
27.143860994404509
 30
0.0
 70
    32
  0
VERTEX
  5
976A
  8
0
 10
50.93197576508728
 20
27.13726099440451
 30
0.0
 70
    32
  0
VERTEX
  5
976B
  8
0
 10
50.932305765087293
 20
27.13088099440451
 30
0.0
 70
    32
  0
VERTEX
  5
976C
  8
0
 10
50.93274576508729
 20
27.12450099440451
 30
0.0
 70
    32
  0
VERTEX
  5
976D
  8
0
 10
50.933295765087287
 20
27.118340994404509
 30
0.0
 70
    32
  0
VERTEX
  5
976E
  8
0
 10
50.933955765087291
 20
27.112290994404511
 30
0.0
 70
    32
  0
VERTEX
  5
976F
  8
0
 10
50.934615765087287
 20
27.106350994404512
 30
0.0
 70
    32
  0
VERTEX
  5
9770
  8
0
 10
50.93538576508729
 20
27.100630994404511
 30
0.0
 70
    32
  0
VERTEX
  5
9771
  8
0
 10
50.936155765087292
 20
27.095020994404511
 30
0.0
 70
    32
  0
VERTEX
  5
9772
  8
0
 10
50.937145765087287
 20
27.089630994404509
 30
0.0
 70
    32
  0
VERTEX
  5
9773
  8
0
 10
50.938135765087289
 20
27.084460994404509
 30
0.0
 70
    32
  0
VERTEX
  5
9774
  8
0
 10
50.93912576508729
 20
27.079620994404511
 30
0.0
 70
    32
  0
VERTEX
  5
9775
  8
0
 10
50.940225765087291
 20
27.074890994404509
 30
0.0
 70
    32
  0
VERTEX
  5
9776
  8
0
 10
50.941325765087292
 20
27.070380994404509
 30
0.0
 70
    32
  0
VERTEX
  5
9777
  8
0
 10
50.942645765087292
 20
27.066200994404511
 30
0.0
 70
    32
  0
VERTEX
  5
9778
  8
0
 10
50.943855765087292
 20
27.062350994404511
 30
0.0
 70
    32
  0
VERTEX
  5
9779
  8
0
 10
50.945175765087278
 20
27.058610994404511
 30
0.0
 70
    32
  0
VERTEX
  5
977A
  8
0
 10
50.946605765087291
 20
27.055310994404511
 30
0.0
 70
    32
  0
VERTEX
  5
977B
  8
0
 10
50.94803576508729
 20
27.052230994404511
 30
0.0
 70
    32
  0
VERTEX
  5
977C
  8
0
 10
50.949465765087282
 20
27.049370994404509
 30
0.0
 70
    32
  0
VERTEX
  5
977D
  8
0
 10
50.950895765087289
 20
27.046950994404511
 30
0.0
 70
    32
  0
VERTEX
  5
977E
  8
0
 10
50.95243576508728
 20
27.044750994404509
 30
0.0
 70
    32
  0
VERTEX
  5
977F
  8
0
 10
50.954085765087278
 20
27.042880994404509
 30
0.0
 70
    32
  0
VERTEX
  5
9780
  8
0
 10
50.955625765087291
 20
27.04145099440451
 30
0.0
 70
    32
  0
VERTEX
  5
9781
  8
0
 10
50.957275765087282
 20
27.04024099440451
 30
0.0
 70
    32
  0
VERTEX
  5
9782
  8
0
 10
50.958815765087287
 20
27.039360994404511
 30
0.0
 70
    32
  0
VERTEX
  5
9783
  8
0
 10
50.960465765087292
 20
27.038810994404511
 30
0.0
 70
    32
  0
VERTEX
  5
9784
  8
0
 10
50.96222576508729
 20
27.038590994404512
 30
0.0
 70
    32
  0
VERTEX
  5
9785
  8
0
 10
50.963875765087288
 20
27.038700994404511
 30
0.0
 70
    32
  0
VERTEX
  5
9786
  8
0
 10
50.965525765087293
 20
27.039250994404512
 30
0.0
 70
    32
  0
VERTEX
  5
9787
  8
0
 10
50.967175765087291
 20
27.040020994404511
 30
0.0
 70
    32
  0
VERTEX
  5
9788
  8
0
 10
50.968825765087288
 20
27.041120994404508
 30
0.0
 70
    32
  0
VERTEX
  5
9789
  8
0
 10
50.970475765087293
 20
27.042550994404511
 30
0.0
 70
    32
  0
VERTEX
  5
978A
  8
0
 10
50.972125765087291
 20
27.044310994404508
 30
0.0
 70
    32
  0
VERTEX
  5
978B
  8
0
 10
50.973775765087289
 20
27.046400994404511
 30
0.0
 70
    32
  0
VERTEX
  5
978C
  8
0
 10
50.975425765087287
 20
27.048820994404512
 30
0.0
 70
    32
  0
VERTEX
  5
978D
  8
0
 10
50.976965765087279
 20
27.051570994404511
 30
0.0
 70
    32
  0
VERTEX
  5
978E
  8
0
 10
50.978505765087291
 20
27.054540994404508
 30
0.0
 70
    32
  0
VERTEX
  5
978F
  8
0
 10
50.98004576508729
 20
27.057840994404511
 30
0.0
 70
    32
  0
VERTEX
  5
9790
  8
0
 10
50.981475765087289
 20
27.061470994404509
 30
0.0
 70
    32
  0
VERTEX
  5
9791
  8
0
 10
50.983015765087288
 20
27.065320994404509
 30
0.0
 70
    32
  0
VERTEX
  5
9792
  8
0
 10
50.98433576508728
 20
27.06950099440451
 30
0.0
 70
    32
  0
VERTEX
  5
9793
  8
0
 10
50.985765765087301
 20
27.073900994404511
 30
0.0
 70
    32
  0
VERTEX
  5
9794
  8
0
 10
50.987085765087279
 20
27.07852099440451
 30
0.0
 70
    32
  0
VERTEX
  5
9795
  8
0
 10
50.988295765087287
 20
27.083360994404512
 30
0.0
 70
    32
  0
VERTEX
  5
9796
  8
0
 10
50.989505765087287
 20
27.088530994404511
 30
0.0
 70
    32
  0
VERTEX
  5
9797
  8
0
 10
50.990605765087288
 20
27.09381099440451
 30
0.0
 70
    32
  0
VERTEX
  5
9798
  8
0
 10
50.991705765087289
 20
27.099310994404512
 30
0.0
 70
    32
  0
VERTEX
  5
9799
  8
0
 10
50.992695765087277
 20
27.105030994404508
 30
0.0
 70
    32
  0
VERTEX
  5
979A
  8
0
 10
50.993685765087278
 20
27.110860994404511
 30
0.0
 70
    32
  0
VERTEX
  5
979B
  8
0
 10
50.994565765087287
 20
27.11691099440451
 30
0.0
 70
    32
  0
VERTEX
  5
979C
  8
0
 10
50.99544576508729
 20
27.123070994404511
 30
0.0
 70
    32
  0
VERTEX
  5
979D
  8
0
 10
50.996105765087293
 20
27.129450994404511
 30
0.0
 70
    32
  0
VERTEX
  5
979E
  8
0
 10
50.996765765087289
 20
27.135830994404511
 30
0.0
 70
    32
  0
VERTEX
  5
979F
  8
0
 10
50.997425765087279
 20
27.142320994404511
 30
0.0
 70
    32
  0
VERTEX
  5
97A0
  8
0
 10
50.997865765087298
 20
27.148920994404509
 30
0.0
 70
    32
  0
VERTEX
  5
97A1
  8
0
 10
50.998305765087288
 20
27.155630994404511
 30
0.0
 70
    32
  0
VERTEX
  5
97A2
  8
0
 10
50.998745765087293
 20
27.162340994404509
 30
0.0
 70
    32
  0
VERTEX
  5
97A3
  8
0
 10
50.998965765087291
 20
27.16916099440451
 30
0.0
 70
    32
  0
VERTEX
  5
97A4
  8
0
 10
50.99918576508729
 20
27.175870994404509
 30
0.0
 70
    32
  0
VERTEX
  5
97A5
  8
0
 10
50.99929576508729
 20
27.18269099440451
 30
0.0
 70
    32
  0
VERTEX
  5
97A6
  8
0
 10
50.99929576508729
 20
27.189400994404512
 30
0.0
 70
    32
  0
VERTEX
  5
97A7
  8
0
 10
50.99929576508729
 20
27.19611099440451
 30
0.0
 70
    32
  0
VERTEX
  5
97A8
  8
0
 10
50.999075765087291
 20
27.202820994404512
 30
0.0
 70
    32
  0
VERTEX
  5
97A9
  8
0
 10
50.998855765087292
 20
27.20942099440451
 30
0.0
 70
    32
  0
VERTEX
  5
97AA
  8
0
 10
50.998635765087279
 20
27.216020994404509
 30
0.0
 70
    32
  0
VERTEX
  5
97AB
  8
0
 10
50.998195765087281
 20
27.222400994404509
 30
0.0
 70
    32
  0
VERTEX
  5
97AC
  8
0
 10
50.997755765087291
 20
27.228780994404509
 30
0.0
 70
    32
  0
VERTEX
  5
97AD
  8
0
 10
50.997205765087287
 20
27.234940994404511
 30
0.0
 70
    32
  0
VERTEX
  5
97AE
  8
0
 10
50.99665576508729
 20
27.240990994404509
 30
0.0
 70
    32
  0
VERTEX
  5
97AF
  8
0
 10
50.995885765087287
 20
27.246930994404511
 30
0.0
 70
    32
  0
VERTEX
  5
97B0
  8
0
 10
50.995115765087291
 20
27.252650994404512
 30
0.0
 70
    32
  0
VERTEX
  5
97B1
  8
0
 10
50.994345765087289
 20
27.258260994404509
 30
0.0
 70
    32
  0
VERTEX
  5
97B2
  8
0
 10
50.993465765087286
 20
27.263650994404511
 30
0.0
 70
    32
  0
VERTEX
  5
97B3
  8
0
 10
50.992475765087278
 20
27.268820994404511
 30
0.0
 70
    32
  0
VERTEX
  5
97B4
  8
0
 10
50.991375765087291
 20
27.273660994404509
 30
0.0
 70
    32
  0
VERTEX
  5
97B5
  8
0
 10
50.99027576508729
 20
27.278390994404511
 30
0.0
 70
    32
  0
VERTEX
  5
97B6
  8
0
 10
50.989175765087282
 20
27.28290099440451
 30
0.0
 70
    32
  0
VERTEX
  5
97B7
  8
0
 10
50.987965765087289
 20
27.287080994404509
 30
0.0
 70
    32
  0
VERTEX
  5
97B8
  8
0
 10
50.986645765087289
 20
27.290930994404508
 30
0.0
 70
    32
  0
VERTEX
  5
97B9
  8
0
 10
50.985325765087289
 20
27.294670994404509
 30
0.0
 70
    32
  0
VERTEX
  5
97BA
  8
0
 10
50.984005765087289
 20
27.297970994404508
 30
0.0
 70
    32
  0
VERTEX
  5
97BB
  8
0
 10
50.98257576508729
 20
27.301050994404509
 30
0.0
 70
    32
  0
VERTEX
  5
97BC
  8
0
 10
50.981145765087291
 20
27.303910994404511
 30
0.0
 70
    32
  0
VERTEX
  5
97BD
  8
0
 10
50.979605765087292
 20
27.306330994404512
 30
0.0
 70
    32
  0
VERTEX
  5
97BE
  8
0
 10
50.978065765087287
 20
27.30853099440451
 30
0.0
 70
    32
  0
VERTEX
  5
97BF
  8
0
 10
50.976525765087281
 20
27.310290994404511
 30
0.0
 70
    32
  0
VERTEX
  5
97C0
  8
0
 10
50.97487576508729
 20
27.31183099440452
 30
0.0
 70
    32
  0
VERTEX
  5
97C1
  8
0
 10
50.973335765087292
 20
27.31304099440451
 30
0.0
 70
    32
  0
VERTEX
  5
97C2
  8
0
 10
50.971685765087287
 20
27.313920994404508
 30
0.0
 70
    32
  0
VERTEX
  5
97C3
  8
0
 10
50.970035765087289
 20
27.314470994404509
 30
0.0
 70
    32
  0
VERTEX
  5
97C4
  8
0
 10
50.968385765087291
 20
27.314690994404511
 30
0.0
 70
    32
  0
SEQEND
  5
97C5
  8
0
  0
CIRCLE
  5
97C6
  8
0
 10
50.9658525036727
 20
27.17662682076946
 30
0.0
 40
0.1380629766675241
  0
LINE
  5
97C7
  8
0
 10
46.886537590304492
 20
26.970081007945179
 30
0.0
 11
46.888216602571937
 21
27.46258761426941
 31
0.0
  0
LINE
  5
97C8
  8
0
 10
51.349022493490793
 20
26.971816762547469
 30
0.0
 11
51.365595765087292
 21
27.382780994404509
 31
0.0
  0
LINE
  5
97C9
  8
0
 10
51.349022493490793
 20
26.971816762547469
 30
0.0
 11
51.372765212492048
 21
25.7240771432621
 31
0.0
  0
POLYLINE
  5
97CA
  8
0
 66
     1
 10
0.0
 20
0.0
 30
0.0
 70
     8
  0
VERTEX
  5
97CB
  8
0
 10
51.365595765087292
 20
27.382780994404509
 30
0.0
 70
    32
  0
VERTEX
  5
97CC
  8
0
 10
51.350855765087282
 20
27.399170994404511
 30
0.0
 70
    32
  0
VERTEX
  5
97CD
  8
0
 10
51.334795765087279
 20
27.415450994404509
 30
0.0
 70
    32
  0
VERTEX
  5
97CE
  8
0
 10
51.31741576508729
 20
27.431510994404508
 30
0.0
 70
    32
  0
VERTEX
  5
97CF
  8
0
 10
51.298605765087288
 20
27.447460994404508
 30
0.0
 70
    32
  0
VERTEX
  5
97D0
  8
0
 10
51.278475765087293
 20
27.463410994404509
 30
0.0
 70
    32
  0
VERTEX
  5
97D1
  8
0
 10
51.257025765087292
 20
27.479030994404511
 30
0.0
 70
    32
  0
VERTEX
  5
97D2
  8
0
 10
51.234255765087283
 20
27.494650994404509
 30
0.0
 70
    32
  0
VERTEX
  5
97D3
  8
0
 10
51.210275765087289
 20
27.509940994404509
 30
0.0
 70
    32
  0
VERTEX
  5
97D4
  8
0
 10
51.184975765087302
 20
27.52512099440451
 30
0.0
 70
    32
  0
VERTEX
  5
97D5
  8
0
 10
51.158355765087293
 20
27.540190994404512
 30
0.0
 70
    32
  0
VERTEX
  5
97D6
  8
0
 10
51.130525765087292
 20
27.554930994404511
 30
0.0
 70
    32
  0
VERTEX
  5
97D7
  8
0
 10
51.101485765087283
 20
27.569560994404501
 30
0.0
 70
    32
  0
VERTEX
  5
97D8
  8
0
 10
51.071125765087288
 20
27.58397099440451
 30
0.0
 70
    32
  0
VERTEX
  5
97D9
  8
0
 10
51.039665765087292
 20
27.598160994404509
 30
0.0
 70
    32
  0
VERTEX
  5
97DA
  8
0
 10
51.006995765087289
 20
27.61213099440452
 30
0.0
 70
    32
  0
VERTEX
  5
97DB
  8
0
 10
50.973225765087271
 20
27.625770994404508
 30
0.0
 70
    32
  0
VERTEX
  5
97DC
  8
0
 10
50.938245765087302
 20
27.639300994404511
 30
0.0
 70
    32
  0
VERTEX
  5
97DD
  8
0
 10
50.90216576508729
 20
27.652500994404509
 30
0.0
 70
    32
  0
VERTEX
  5
97DE
  8
0
 10
50.86498576508729
 20
27.665370994404508
 30
0.0
 70
    32
  0
VERTEX
  5
97DF
  8
0
 10
50.826705765087283
 20
27.678020994404509
 30
0.0
 70
    32
  0
VERTEX
  5
97E0
  8
0
 10
50.787435765087281
 20
27.6904509944045
 30
0.0
 70
    32
  0
VERTEX
  5
97E1
  8
0
 10
50.747175765087277
 20
27.702550994404511
 30
0.0
 70
    32
  0
VERTEX
  5
97E2
  8
0
 10
50.705815765087287
 20
27.71432099440451
 30
0.0
 70
    32
  0
VERTEX
  5
97E3
  8
0
 10
50.66357576508728
 20
27.725870994404509
 30
0.0
 70
    32
  0
VERTEX
  5
97E4
  8
0
 10
50.62023576508728
 20
27.737090994404511
 30
0.0
 70
    32
  0
VERTEX
  5
97E5
  8
0
 10
50.576125765087291
 20
27.747980994404511
 30
0.0
 70
    32
  0
VERTEX
  5
97E6
  8
0
 10
50.531025765087279
 20
27.758540994404509
 30
0.0
 70
    32
  0
VERTEX
  5
97E7
  8
0
 10
50.485045765087293
 20
27.768770994404498
 30
0.0
 70
    32
  0
VERTEX
  5
97E8
  8
0
 10
50.43829576508729
 20
27.778670994404511
 30
0.0
 70
    32
  0
VERTEX
  5
97E9
  8
0
 10
50.390665765087277
 20
27.788240994404511
 30
0.0
 70
    32
  0
VERTEX
  5
97EA
  8
0
 10
50.342265765087291
 20
27.797480994404509
 30
0.0
 70
    32
  0
VERTEX
  5
97EB
  8
0
 10
50.293205765087279
 20
27.80628099440451
 30
0.0
 70
    32
  0
VERTEX
  5
97EC
  8
0
 10
50.243265765087287
 20
27.814860994404508
 30
0.0
 70
    32
  0
VERTEX
  5
97ED
  8
0
 10
50.192665765087277
 20
27.823000994404499
 30
0.0
 70
    32
  0
VERTEX
  5
97EE
  8
0
 10
50.141405765087292
 20
27.830810994404509
 30
0.0
 70
    32
  0
VERTEX
  5
97EF
  8
0
 10
50.089595765087282
 20
27.83818099440451
 30
0.0
 70
    32
  0
VERTEX
  5
97F0
  8
0
 10
50.037125765087282
 20
27.84522099440451
 30
0.0
 70
    32
  0
VERTEX
  5
97F1
  8
0
 10
49.983995765087293
 20
27.851820994404509
 30
0.0
 70
    32
  0
VERTEX
  5
97F2
  8
0
 10
49.930425765087278
 20
27.858200994404498
 30
0.0
 70
    32
  0
VERTEX
  5
97F3
  8
0
 10
49.876305765087281
 20
27.864030994404509
 30
0.0
 70
    32
  0
VERTEX
  5
97F4
  8
0
 10
49.821745765087293
 20
27.86953099440451
 30
0.0
 70
    32
  0
VERTEX
  5
97F5
  8
0
 10
49.766635765087287
 20
27.874700994404499
 30
0.0
 70
    32
  0
VERTEX
  5
97F6
  8
0
 10
49.71119576508729
 20
27.879320994404509
 30
0.0
 70
    32
  0
VERTEX
  5
97F7
  8
0
 10
49.65542576508728
 20
27.883720994404509
 30
0.0
 70
    32
  0
VERTEX
  5
97F8
  8
0
 10
49.599215765087301
 20
27.887570994404509
 30
0.0
 70
    32
  0
VERTEX
  5
97F9
  8
0
 10
49.542785765087302
 20
27.8910909944045
 30
0.0
 70
    32
  0
VERTEX
  5
97FA
  8
0
 10
49.486025765087291
 20
27.894170994404512
 30
0.0
 70
    32
  0
VERTEX
  5
97FB
  8
0
 10
49.429045765087302
 20
27.8968109944045
 30
0.0
 70
    32
  0
VERTEX
  5
97FC
  8
0
 10
49.371845765087294
 20
27.899120994404509
 30
0.0
 70
    32
  0
VERTEX
  5
97FD
  8
0
 10
49.314425765087293
 20
27.900990994404509
 30
0.0
 70
    32
  0
VERTEX
  5
97FE
  8
0
 10
49.256895765087293
 20
27.902420994404508
 30
0.0
 70
    32
  0
VERTEX
  5
97FF
  8
0
 10
49.199255765087287
 20
27.903520994404499
 30
0.0
 70
    32
  0
VERTEX
  5
9800
  8
0
 10
49.141615765087302
 20
27.90407099440451
 30
0.0
 70
    32
  0
VERTEX
  5
9801
  8
0
 10
49.083865765087282
 20
27.904290994404509
 30
0.0
 70
    32
  0
VERTEX
  5
9802
  8
0
 10
49.02611576508729
 20
27.90407099440451
 30
0.0
 70
    32
  0
VERTEX
  5
9803
  8
0
 10
48.968475765087291
 20
27.903520994404499
 30
0.0
 70
    32
  0
VERTEX
  5
9804
  8
0
 10
48.910835765087292
 20
27.902420994404508
 30
0.0
 70
    32
  0
VERTEX
  5
9805
  8
0
 10
48.853305765087292
 20
27.900990994404509
 30
0.0
 70
    32
  0
VERTEX
  5
9806
  8
0
 10
48.795885765087291
 20
27.899120994404509
 30
0.0
 70
    32
  0
VERTEX
  5
9807
  8
0
 10
48.73868576508729
 20
27.8968109944045
 30
0.0
 70
    32
  0
VERTEX
  5
9808
  8
0
 10
48.681705765087287
 20
27.894170994404512
 30
0.0
 70
    32
  0
VERTEX
  5
9809
  8
0
 10
48.62494576508729
 20
27.8910909944045
 30
0.0
 70
    32
  0
VERTEX
  5
980A
  8
0
 10
48.568515765087291
 20
27.887570994404509
 30
0.0
 70
    32
  0
VERTEX
  5
980B
  8
0
 10
48.512305765087277
 20
27.883720994404509
 30
0.0
 70
    32
  0
VERTEX
  5
980C
  8
0
 10
48.456535765087281
 20
27.879320994404509
 30
0.0
 70
    32
  0
VERTEX
  5
980D
  8
0
 10
48.401095765087291
 20
27.874700994404499
 30
0.0
 70
    32
  0
VERTEX
  5
980E
  8
0
 10
48.345985765087292
 20
27.86953099440451
 30
0.0
 70
    32
  0
VERTEX
  5
980F
  8
0
 10
48.291425765087268
 20
27.864030994404509
 30
0.0
 70
    32
  0
VERTEX
  5
9810
  8
0
 10
48.237305765087292
 20
27.858200994404498
 30
0.0
 70
    32
  0
VERTEX
  5
9811
  8
0
 10
48.183735765087292
 20
27.851820994404509
 30
0.0
 70
    32
  0
VERTEX
  5
9812
  8
0
 10
48.130605765087289
 20
27.84522099440451
 30
0.0
 70
    32
  0
VERTEX
  5
9813
  8
0
 10
48.078135765087289
 20
27.83818099440451
 30
0.0
 70
    32
  0
VERTEX
  5
9814
  8
0
 10
48.026325765087272
 20
27.830810994404509
 30
0.0
 70
    32
  0
VERTEX
  5
9815
  8
0
 10
47.975065765087287
 20
27.823000994404499
 30
0.0
 70
    32
  0
VERTEX
  5
9816
  8
0
 10
47.924465765087291
 20
27.814860994404508
 30
0.0
 70
    32
  0
VERTEX
  5
9817
  8
0
 10
47.874525765087292
 20
27.80628099440451
 30
0.0
 70
    32
  0
VERTEX
  5
9818
  8
0
 10
47.825465765087301
 20
27.797480994404509
 30
0.0
 70
    32
  0
VERTEX
  5
9819
  8
0
 10
47.777065765087279
 20
27.788240994404511
 30
0.0
 70
    32
  0
VERTEX
  5
981A
  8
0
 10
47.729435765087288
 20
27.778670994404511
 30
0.0
 70
    32
  0
VERTEX
  5
981B
  8
0
 10
47.682685765087292
 20
27.768770994404498
 30
0.0
 70
    32
  0
VERTEX
  5
981C
  8
0
 10
47.636705765087278
 20
27.758540994404509
 30
0.0
 70
    32
  0
VERTEX
  5
981D
  8
0
 10
47.591605765087287
 20
27.747980994404511
 30
0.0
 70
    32
  0
VERTEX
  5
981E
  8
0
 10
47.547495765087291
 20
27.737090994404511
 30
0.0
 70
    32
  0
VERTEX
  5
981F
  8
0
 10
47.50415576508729
 20
27.725870994404509
 30
0.0
 70
    32
  0
VERTEX
  5
9820
  8
0
 10
47.461915765087291
 20
27.71432099440451
 30
0.0
 70
    32
  0
VERTEX
  5
9821
  8
0
 10
47.420555765087279
 20
27.702550994404511
 30
0.0
 70
    32
  0
VERTEX
  5
9822
  8
0
 10
47.380295765087283
 20
27.6904509944045
 30
0.0
 70
    32
  0
VERTEX
  5
9823
  8
0
 10
47.340915765087288
 20
27.678020994404509
 30
0.0
 70
    32
  0
VERTEX
  5
9824
  8
0
 10
47.302745765087288
 20
27.665370994404508
 30
0.0
 70
    32
  0
VERTEX
  5
9825
  8
0
 10
47.265565765087302
 20
27.652500994404509
 30
0.0
 70
    32
  0
VERTEX
  5
9826
  8
0
 10
47.22948576508729
 20
27.639300994404511
 30
0.0
 70
    32
  0
VERTEX
  5
9827
  8
0
 10
47.194505765087278
 20
27.625770994404508
 30
0.0
 70
    32
  0
VERTEX
  5
9828
  8
0
 10
47.160735765087281
 20
27.61213099440452
 30
0.0
 70
    32
  0
VERTEX
  5
9829
  8
0
 10
47.128065765087293
 20
27.598160994404509
 30
0.0
 70
    32
  0
VERTEX
  5
982A
  8
0
 10
47.09660576508729
 20
27.58397099440451
 30
0.0
 70
    32
  0
VERTEX
  5
982B
  8
0
 10
47.066245765087288
 20
27.569560994404501
 30
0.0
 70
    32
  0
VERTEX
  5
982C
  8
0
 10
47.037205765087293
 20
27.554930994404511
 30
0.0
 70
    32
  0
VERTEX
  5
982D
  8
0
 10
47.009375765087292
 20
27.540190994404512
 30
0.0
 70
    32
  0
VERTEX
  5
982E
  8
0
 10
46.98275576508729
 20
27.52512099440451
 30
0.0
 70
    32
  0
VERTEX
  5
982F
  8
0
 10
46.957455765087282
 20
27.509940994404509
 30
0.0
 70
    32
  0
VERTEX
  5
9830
  8
0
 10
46.93347576508728
 20
27.494650994404509
 30
0.0
 70
    32
  0
VERTEX
  5
9831
  8
0
 10
46.910705765087293
 20
27.479030994404511
 30
0.0
 70
    32
  0
VERTEX
  5
9832
  8
0
 10
46.889255765087277
 20
27.463410994404509
 30
0.0
 70
    32
  0
VERTEX
  5
9833
  8
0
 10
46.869125765087183
 20
27.44746099440443
 30
0.0
 70
    32
  0
SEQEND
  5
9834
  8
0
  0
ARC
  5
9835
  8
0
 10
47.495782225698413
 20
27.12365982630352
 30
0.0
 40
0.6433448051696497
 50
193.61566277751851
 51
231.82390970334831
  0
ARC
  5
9836
  8
0
 10
50.963250690285342
 20
27.026040438792439
 30
0.0
 40
0.3895639757650805
 50
279.13340926601649
 51
351.99898266464538
  0
ARC
  5
9837
  8
0
 10
49.654755402526789
 20
41.581564270503428
 30
0.0
 40
16.483530025608172
 50
264.45919988278717
 51
269.91205180100451
  0
LINE
  5
9838
  8
0
 10
46.886537590304492
 20
25.659152353249748
 30
0.0
 11
48.001614379085353
 21
25.212923086118781
 31
0.0
  0
LINE
  5
983A
  8
0
 10
48.642702550200958
 20
25.167315365595329
 30
0.0
 11
50.116042349127092
 21
25.185337357094991
 31
0.0
  0
LINE
  5
983C
  8
0
 10
50.66022614801291
 20
25.26439615224777
 30
0.0
 11
51.372765212492048
 21
25.7240771432621
 31
0.0
  0
ARC
  5
983D
  8
0
 10
49.231249695207133
 20
33.08372604508962
 30
0.0
 40
7.878673262950155
 50
255.54816276908321
 51
258.98348288075709
  0
ARC
  5
983E
  8
0
 10
49.231249695207133
 20
33.08372604508962
 30
0.0
 40
7.878673262950155
 50
282.01234485183647
 51
284.11790051444513
  0
ARC
  5
9845
  8
0
 10
49.068604279556872
 20
24.150356889364939
 30
0.0
 40
3.4941110086416352
 50
68.65037189845269
 51
111.46409600210799
  0
ARC
  5
9846
  8
0
 10
49.078195988419267
 20
29.784434227599998
 30
0.0
 40
3.244111550505365
 50
244.0712040236979
 51
294.80876377435612
  0
LINE
  5
9847
  8
0
 10
48.001614379085353
 20
25.212923086118781
 30
0.0
 11
48.642702550200958
 21
25.167315365595329
 31
0.0
  0
LINE
  5
9848
  8
0
 10
50.66022614801291
 20
25.26439615224777
 30
0.0
 11
50.116042349127092
 21
25.182516992174222
 31
0.0
  0
VIEWPORT
  5
9841
 67
     1
  8
0
 10
5.6937504565621921
 20
3.9654165553295679
 30
0.0
 40
13.670914547210931
 41
8.7461330960491512
 68
     1
 69
     1
1001
ACAD
1000
MVIEW
1002
{
1070
    16
1010
0.0
1020
0.0
1030
0.0
1010
0.0
1020
0.0
1030
1.0
1040
0.0
1040
8.7461330960491512
1040
5.6937504565621921
1040
3.9654165553295679
1040
50.0
1040
0.0
1040
0.0
1070
     0
1070
   100
1070
     1
1070
     1
1070
     0
1070
     0
1070
     0
1070
     0
1040
0.0
1040
0.0
1040
0.0
1040
10.0
1040
10.0
1040
10.0
1040
10.0
1070
     0
1002
{
1002
}
1002
}
  0
VIEWPORT
  5
9843
 67
     1
  8
0
 10
5.6570833874499691
 20
3.9687502102589032
 30
0.0
 40
9.0513334199199491
 41
6.3500003364142463
 68
     2
 69
     2
1001
ACAD
1000
MVIEW
1002
{
1070
    16
1010
0.0
1020
0.0
1030
0.0
1010
0.0
1020
0.0
1030
1.0
1040
0.0
1040
10.08512087912089
1040
49.208989499999973
1040
22.202749999999991
1040
50.0
1040
0.0
1040
0.0
1070
     0
1070
   100
1070
     1
1070
     1
1070
     0
1070
     0
1070
     0
1070
     0
1040
0.0
1040
0.0
1040
0.0
1040
1.0
1040
1.0
1040
0.0
1040
0.0
1070
     0
1002
{
1002
}
1002
}
  0
ENDSEC
  0
EOF
