  0
SECTION
  2
HEADER
  9
$ACADVER
  1
AC1009
  9
$INSBASE
 10
110.77443
 20
159.239271
 30
0.0
  9
$EXTMIN
 10
47.039299444725152
 20
18.36040952741358
 30
0.0
  9
$EXTMAX
 10
51.874655634286512
 20
30.694645666136719
 30
0.0
  9
$LIMMIN
 10
0.0
 20
0.0
  9
$LIMMAX
 10
75.0
 20
75.0
  9
$ORTHOMODE
 70
     0
  9
$REGENMODE
 70
     1
  9
$FILLMODE
 70
     1
  9
$QTEXTMODE
 70
     0
  9
$MIRRTEXT
 70
     1
  9
$DRAGMODE
 70
     2
  9
$LTSCALE
 40
5.0
  9
$OSMODE
 70
    37
  9
$ATTMODE
 70
     1
  9
$TEXTSIZE
 40
3.0
  9
$TRACEWID
 40
0.05
  9
$TEXTSTYLE
  7
STANDARD
  9
$CLAYER
  8
0
  9
$CELTYPE
  6
BYLAYER
  9
$CECOLOR
 62
   256
  9
$DIMSCALE
 40
1.0
  9
$DIMASZ
 40
3.0
  9
$DIMEXO
 40
0.0625
  9
$DIMDLI
 40
0.38
  9
$DIMRND
 40
0.0
  9
$DIMDLE
 40
0.0
  9
$DIMEXE
 40
0.18
  9
$DIMTP
 40
0.0
  9
$DIMTM
 40
0.0
  9
$DIMTXT
 40
3.0
  9
$DIMCEN
 40
0.09
  9
$DIMTSZ
 40
0.0
  9
$DIMTOL
 70
     0
  9
$DIMLIM
 70
     0
  9
$DIMTIH
 70
     0
  9
$DIMTOH
 70
     0
  9
$DIMSE1
 70
     0
  9
$DIMSE2
 70
     0
  9
$DIMTAD
 70
     1
  9
$DIMZIN
 70
     0
  9
$DIMBLK
  1

  9
$DIMASO
 70
     1
  9
$DIMSHO
 70
     0
  9
$DIMPOST
  1

  9
$DIMAPOST
  1

  9
$DIMALT
 70
     0
  9
$DIMALTD
 70
     2
  9
$DIMALTF
 40
25.399999999999999
  9
$DIMLFAC
 40
1.0
  9
$DIMTOFL
 70
     0
  9
$DIMTVP
 40
0.0
  9
$DIMTIX
 70
     0
  9
$DIMSOXD
 70
     0
  9
$DIMSAH
 70
     0
  9
$DIMBLK1
  1

  9
$DIMBLK2
  1

  9
$DIMSTYLE
  2
STANDARD
  9
$DIMCLRD
 70
     0
  9
$DIMCLRE
 70
     0
  9
$DIMCLRT
 70
     0
  9
$DIMTFAC
 40
1.0
  9
$DIMGAP
 40
0.09
  9
$LUNITS
 70
     2
  9
$LUPREC
 70
     4
  9
$SKETCHINC
 40
0.1
  9
$FILLETRAD
 40
0.1
  9
$AUNITS
 70
     0
  9
$AUPREC
 70
     0
  9
$MENU
  1
acad
  9
$ELEVATION
 40
0.0
  9
$PELEVATION
 40
0.0
  9
$THICKNESS
 40
0.0
  9
$LIMCHECK
 70
     0
  9
$BLIPMODE
 70
     0
  9
$CHAMFERA
 40
0.0
  9
$CHAMFERB
 40
0.0
  9
$SKPOLY
 70
     0
  9
$TDCREATE
 40
2449291.6096759262
  9
$TDUPDATE
 40
2453404.390030161
  9
$TDINDWG
 40
0.2568877315
  9
$TDUSRTIMER
 40
0.2568853009
  9
$USRTIMER
 70
     1
  9
$ANGBASE
 50
0.0
  9
$ANGDIR
 70
     0
  9
$PDMODE
 70
     0
  9
$PDSIZE
 40
0.0
  9
$PLINEWID
 40
0.0
  9
$COORDS
 70
     1
  9
$SPLFRAME
 70
     0
  9
$SPLINETYPE
 70
     5
  9
$SPLINESEGS
 70
     8
  9
$ATTDIA
 70
     0
  9
$ATTREQ
 70
     1
  9
$HANDLING
 70
-16383
  9
$HANDSEED
  5
8C04
  9
$SURFTAB1
 70
     6
  9
$SURFTAB2
 70
     6
  9
$SURFTYPE
 70
     6
  9
$SURFU
 70
     6
  9
$SURFV
 70
     6
  9
$UCSNAME
  2

  9
$UCSORG
 10
0.0
 20
0.0
 30
0.0
  9
$UCSXDIR
 10
1.0
 20
0.0
 30
0.0
  9
$UCSYDIR
 10
0.0
 20
1.0
 30
0.0
  9
$PUCSNAME
  2

  9
$PUCSORG
 10
0.0
 20
0.0
 30
0.0
  9
$PUCSXDIR
 10
1.0
 20
0.0
 30
0.0
  9
$PUCSYDIR
 10
0.0
 20
1.0
 30
0.0
  9
$USERI1
 70
     0
  9
$USERI2
 70
     0
  9
$USERI3
 70
     0
  9
$USERI4
 70
     0
  9
$USERI5
 70
     0
  9
$USERR1
 40
0.0
  9
$USERR2
 40
0.0
  9
$USERR3
 40
0.0
  9
$USERR4
 40
0.0
  9
$USERR5
 40
0.0
  9
$WORLDVIEW
 70
     1
  9
$SHADEDGE
 70
     3
  9
$SHADEDIF
 70
    70
  9
$TILEMODE
 70
     1
  9
$MAXACTVP
 70
    48
  9
$PLIMCHECK
 70
     0
  9
$PEXTMIN
 10
1.1314166774899941
 20
0.7937500420517809
 30
0.0
  9
$PEXTMAX
 10
10.18275009740994
 20
7.1437503784660237
 30
0.0
  9
$PLIMMIN
 10
-0.1512494425135334
 20
-0.1679166658656803
  9
$PLIMMAX
 10
11.538750355637911
 20
8.0987497765248211
  9
$UNITMODE
 70
     0
  9
$VISRETAIN
 70
     0
  9
$PLINEGEN
 70
     0
  9
$PSLTSCALE
 70
     0
  0
ENDSEC
  0
SECTION
  2
TABLES
  0
TABLE
  2
VPORT
 70
     2
  0
VPORT
  2
*ACTIVE
 70
     0
 10
0.0
 20
0.0
 11
1.0
 21
1.0
 12
54.525719990796219
 22
22.28084805248983
 13
0.0
 23
0.0
 14
1.0
 24
1.0
 15
0.0
 25
0.0
 16
0.0
 26
0.0
 36
1.0
 17
0.0
 27
0.0
 37
0.0
 40
16.304142200027581
 41
1.563081009296148
 42
50.0
 43
0.0
 44
0.0
 50
0.0
 51
0.0
 71
     0
 72
   100
 73
     1
 74
     1
 75
     0
 76
     0
 77
     0
 78
     0
  0
ENDTAB
  0
TABLE
  2
LTYPE
 70
     1
  0
LTYPE
  2
CONTINUOUS
 70
     0
  3
Solid line
 72
    65
 73
     0
 40
0.0
  0
ENDTAB
  0
TABLE
  2
LAYER
 70
     1
  0
LAYER
  2
0
 70
     0
 62
     7
  6
CONTINUOUS
  0
ENDTAB
  0
TABLE
  2
STYLE
 70
     1
  0
STYLE
  2
STANDARD
 70
     0
 40
0.0
 41
1.0
 50
0.0
 71
     0
 42
3.0
  3
txt.shx
  4
BIGFONT.shx
  0
ENDTAB
  0
TABLE
  2
VIEW
 70
     0
  0
ENDTAB
  0
TABLE
  2
UCS
 70
     0
  0
ENDTAB
  0
TABLE
  2
APPID
 70
     1
  0
APPID
  2
ACAD
 70
     0
  0
ENDTAB
  0
TABLE
  2
DIMSTYLE
 70
     1
  0
DIMSTYLE
  2
STANDARD
 70
     0
  3

  4

  5

  6

  7

 40
1.0
 41
0.18
 42
0.0625
 43
0.38
 44
0.18
 45
0.0
 46
0.0
 47
0.0
 48
0.0
140
0.18
141
0.09
142
0.0
143
25.399999999999999
144
1.0
145
0.0
146
1.0
147
0.09
 71
     0
 72
     0
 73
     1
 74
     1
 75
     0
 76
     0
 77
     0
 78
     0
170
     0
171
     2
172
     0
173
     0
174
     0
175
     0
176
     0
177
     0
178
     0
  0
ENDTAB
  0
ENDSEC
  0
SECTION
  2
BLOCKS
  0
BLOCK
  8
0
  2
$MODEL_SPACE
 70
     0
 10
0.0
 20
0.0
 30
0.0
  3
$MODEL_SPACE
  1

  0
ENDBLK
  5
8754
  8
0
  0
BLOCK
 67
     1
  8
0
  2
$PAPER_SPACE
 70
     0
 10
0.0
 20
0.0
 30
0.0
  3
$PAPER_SPACE
  1

  0
ENDBLK
  5
8750
 67
     1
  8
0
  0
ENDSEC
  0
SECTION
  2
ENTITIES
  0
LINE
  5
8760
  8
0
 10
47.265000000000001
 20
25.507699999999989
 30
0.0
 11
47.265000000000001
 21
21.983786865520941
 31
0.0
  0
LINE
  5
8761
  8
0
 10
51.153000000000013
 20
21.983786865520941
 30
0.0
 11
51.152999999999992
 21
25.484575841482108
 31
0.0
  0
LINE
  5
8762
  8
0
 10
48.321234151644532
 20
18.789465568613512
 30
0.0
 11
48.315007860657488
 21
19.638935797754129
 31
0.0
  0
LINE
  5
8763
  8
0
 10
50.190368696701171
 20
18.78946556861354
 30
0.0
 11
50.190368696701178
 21
19.638780534196322
 31
0.0
  0
ARC
  5
8764
  8
0
 10
49.255801424172851
 20
19.592771936778181
 30
0.0
 40
1.232362409364602
 50
220.6806736378108
 51
319.3193263621896
  0
LINE
  5
8765
  8
0
 10
47.265000000000001
 20
21.983786865520941
 30
0.0
 11
47.393026806627702
 21
21.897602183577991
 31
0.0
  0
LINE
  5
8766
  8
0
 10
47.393026806627702
 20
21.897602183577991
 30
0.0
 11
48.314577871735871
 21
21.486938142178879
 31
0.0
  0
LINE
  5
8767
  8
0
 10
48.314577871735871
 20
21.486938142178879
 30
0.0
 11
48.844402806542149
 21
21.385777882176122
 31
0.0
  0
LINE
  5
8768
  8
0
 10
48.844402806542149
 20
21.385777882176122
 30
0.0
 11
50.2828402524393
 21
21.541790223594919
 31
0.0
  0
LINE
  5
8769
  8
0
 10
50.2828402524393
 20
21.541790223594919
 30
0.0
 11
50.813316121804952
 21
21.77271140455175
 31
0.0
  0
LINE
  5
876A
  8
0
 10
50.813316121804952
 20
21.77271140455175
 30
0.0
 11
51.153000000000013
 21
21.983786865520941
 31
0.0
  0
LINE
  5
876B
  8
0
 10
48.844402806542149
 20
19.835614039529862
 30
0.0
 11
50.2828402524393
 21
19.991626380948649
 31
0.0
  0
LINE
  5
876C
  8
0
 10
47.393026806627702
 20
20.347438340931721
 30
0.0
 11
48.314577871735871
 21
19.93677429953263
 31
0.0
  0
LINE
  5
876D
  8
0
 10
47.265000000000001
 20
20.433623022874681
 30
0.0
 11
47.393026806627702
 21
20.347438340931721
 31
0.0
  0
LINE
  5
876E
  8
0
 10
48.314577871735871
 20
19.93677429953263
 30
0.0
 11
48.844402806542149
 21
19.835614039529862
 31
0.0
  0
LINE
  5
876F
  8
0
 10
50.2828402524393
 20
19.991626380948649
 30
0.0
 11
50.813316121804952
 21
20.22254756190549
 31
0.0
  0
LINE
  5
8770
  8
0
 10
50.813316121804952
 20
20.22254756190549
 30
0.0
 11
51.153000000000013
 21
20.433623022874681
 31
0.0
  0
LINE
  5
8771
  8
0
 10
51.153000000000013
 20
21.63362302287468
 30
0.0
 11
51.153000000000013
 21
20.433623022874681
 31
0.0
  0
LINE
  5
8772
  8
0
 10
50.813316121804952
 20
21.422547561905489
 30
0.0
 11
50.813316121804952
 21
20.22254756190549
 31
0.0
  0
LINE
  5
8773
  8
0
 10
50.2828402524393
 20
21.191626380948652
 30
0.0
 11
50.2828402524393
 21
19.991626380948649
 31
0.0
  0
LINE
  5
8774
  8
0
 10
48.844402806542149
 20
21.035614039529872
 30
0.0
 11
48.844402806542149
 21
19.835614039529862
 31
0.0
  0
LINE
  5
8775
  8
0
 10
48.314577871735871
 20
21.136774299532622
 30
0.0
 11
48.314577871735871
 21
19.93677429953263
 31
0.0
  0
LINE
  5
8776
  8
0
 10
47.393026806627702
 20
21.54743834093173
 30
0.0
 11
47.393026806627702
 21
20.347438340931721
 31
0.0
  0
LINE
  5
8777
  8
0
 10
47.265000000000001
 20
21.63362302287468
 30
0.0
 11
47.265000000000001
 21
20.433623022874681
 31
0.0
  0
LINE
  5
8778
  8
0
 10
47.265000000000001
 20
21.63362302287468
 30
0.0
 11
47.324095277089768
 21
21.944005293251259
 31
0.0
  0
LINE
  5
8779
  8
0
 10
51.153000000000013
 20
21.63362302287468
 30
0.0
 11
51.044904899888131
 21
21.916617875323752
 31
0.0
  0
ARC
  5
877A
  8
0
 10
49.20900000000001
 20
24.492477574750051
 30
0.0
 40
3.4571932761676121
 50
235.7845869695517
 51
304.21541303044808
  0
LINE
  5
877B
  8
0
 10
47.625162545522159
 20
20.243993394366139
 30
0.0
 11
47.625162545522159
 21
20.028167367685171
 31
0.0
  0
LINE
  5
877C
  8
0
 10
47.625162545522159
 20
20.028167367685171
 30
0.0
 11
48.633898769992243
 21
19.651249900653472
 31
0.0
  0
ARC
  5
877D
  8
0
 10
48.790833928701971
 20
19.599113181585189
 30
0.0
 40
0.1653689254801353
 50
348.60589051256761
 51
161.6225725640297
  0
LINE
  5
877E
  8
0
 10
48.952943679120573
 20
19.566443465735968
 30
0.0
 11
50.530049355134238
 21
19.802407764734301
 31
0.0
  0
ARC
  5
877F
  8
0
 10
50.64060926730361
 20
19.835771710164281
 30
0.0
 40
0.1154844016893523
 50
26.79157321744119
 51
196.7923721279009
  0
LINE
  5
8780
  8
0
 10
50.743696663489992
 20
19.887825872159809
 30
0.0
 11
50.743696663489992
 21
20.192241550906552
 31
0.0
  0
LINE
  5
8781
  8
0
 10
47.608724334905141
 20
19.961344781453199
 30
0.0
 11
48.617460559375232
 21
19.5844273144215
 31
0.0
  0
ARC
  5
8782
  8
0
 10
48.774395718084968
 20
19.532290595353231
 30
0.0
 40
0.1653689254801353
 50
348.60589051256761
 51
161.6225725640297
  0
LINE
  5
8783
  8
0
 10
48.936505468503583
 20
19.499620879504
 30
0.0
 11
50.555076486584092
 21
19.753909952007071
 31
0.0
  0
ARC
  5
8784
  8
0
 10
50.671894239715201
 20
19.771621819465508
 30
0.0
 40
0.1181528573309564
 50
34.96244400022114
 51
188.6215013451239
  0
LINE
  5
8785
  8
0
 10
50.768723794939802
 20
19.839328059432582
 30
0.0
 11
50.743696663489992
 21
19.887825872159809
 31
0.0
  0
LINE
  5
8786
  8
0
 10
47.608724334905141
 20
19.961344781453199
 30
0.0
 11
47.625162545522159
 21
20.028167367685171
 31
0.0
  0
LINE
  5
8787
  8
0
 10
47.5995524866522
 20
19.906267951396121
 30
0.0
 11
48.608288711122292
 21
19.529350484364421
 31
0.0
  0
ARC
  5
8788
  8
0
 10
48.76522386983202
 20
19.477213765296149
 30
0.0
 40
0.1653689254801353
 50
348.60589051256761
 51
161.6225725640297
  0
LINE
  5
8789
  8
0
 10
48.927333620250629
 20
19.444544049446929
 30
0.0
 11
50.580864462017288
 21
19.698833121949999
 31
0.0
  0
ARC
  5
878A
  8
0
 10
50.697682215148411
 20
19.716544989408451
 30
0.0
 40
0.1181528573309564
 50
34.962444000221218
 51
188.6215013451239
  0
LINE
  5
878B
  8
0
 10
50.794511770372999
 20
19.78425122937551
 30
0.0
 11
50.768723794939788
 21
19.839328059432599
 31
0.0
  0
LINE
  5
878C
  8
0
 10
47.5995524866522
 20
19.906267951396121
 30
0.0
 11
47.608724334905141
 21
19.961344781453199
 31
0.0
  0
ARC
  5
878D
  8
0
 10
49.255801424172851
 20
19.69277193677819
 30
0.0
 40
1.232362409364602
 50
220.6806736378108
 51
319.3193263621896
  0
ARC
  5
878E
  8
0
 10
49.255801424172851
 20
19.792771936778191
 30
0.0
 40
1.232362409364602
 50
220.6806736378108
 51
319.3193263621896
  0
ARC
  5
878F
  8
0
 10
49.255801424172851
 20
19.892771936778189
 30
0.0
 40
1.232362409364602
 50
220.6806736378108
 51
319.3193263621896
  0
ARC
  5
8790
  8
0
 10
49.255801424172851
 20
19.99277193677819
 30
0.0
 40
1.232362409364602
 50
220.6806736378108
 51
319.3193263621896
  0
ARC
  5
8791
  8
0
 10
49.255801424172851
 20
20.092771936778188
 30
0.0
 40
1.232362409364602
 50
220.6806736378108
 51
319.3193263621896
  0
ARC
  5
8792
  8
0
 10
49.255801424172851
 20
20.19277193677819
 30
0.0
 40
1.232362409364602
 50
220.6806736378108
 51
319.3193263621896
  0
ARC
  5
8793
  8
0
 10
49.255801424172851
 20
20.292771936778191
 30
0.0
 40
1.232362409364602
 50
220.6806736378108
 51
319.3193263621896
  0
ARC
  5
8794
  8
0
 10
49.255801424172851
 20
20.392771936778178
 30
0.0
 40
1.232362409364602
 50
220.6806736378108
 51
319.3193263621896
  0
ARC
  5
8795
  8
0
 10
49.255801424172851
 20
20.49277193677819
 30
0.0
 40
1.232362409364602
 50
225.89168923830741
 51
315.59471244541879
  0
ARC
  5
8796
  8
0
 10
49.255801424172851
 20
20.592771936778181
 30
0.0
 40
1.232362409364602
 50
238.55126803892111
 51
307.05331369788792
  0
ARC
  5
8797
  8
0
 10
49.255801424172851
 20
20.69277193677819
 30
0.0
 40
1.232362409364602
 50
262.60418394824791
 51
294.88135115402628
  0
LINE
  5
89C1
  8
0
 10
47.869986656345532
 20
25.16687723963652
 30
0.0
 11
47.869986656345532
 21
21.685058064335681
 31
0.0
  0
LINE
  5
89C2
  8
0
 10
48.314577871735871
 20
21.486938142178879
 30
0.0
 11
48.314577871735871
 21
25.088705531491449
 31
0.0
  0
LINE
  5
89C3
  8
0
 10
50.2828402524393
 20
21.541790223594919
 30
0.0
 11
50.2828402524393
 21
25.10288374558754
 31
0.0
  0
LINE
  5
89C4
  8
0
 10
50.813316121804952
 20
21.77271140455175
 30
0.0
 11
50.813316121804952
 21
25.224795773019562
 31
0.0
  0
LINE
  5
89C5
  8
0
 10
47.265000000000001
 20
25.50637962380744
 30
0.0
 11
47.869986656345532
 21
25.16687723963652
 31
0.0
  0
LINE
  5
89C6
  8
0
 10
47.869986656345532
 20
25.16687723963652
 30
0.0
 11
48.314577871735871
 21
25.088705531491449
 31
0.0
  0
LINE
  5
89C7
  8
0
 10
48.314577871735871
 20
25.088705531491449
 30
0.0
 11
50.2828402524393
 21
25.088705531491449
 31
0.0
  0
LINE
  5
89C8
  8
0
 10
50.2828402524393
 20
25.088705531491449
 30
0.0
 11
50.813316121804952
 21
25.224795773019562
 31
0.0
  0
LINE
  5
89C9
  8
0
 10
50.813316121804952
 20
25.224795773019562
 30
0.0
 11
51.152999999999992
 21
25.484575841482091
 31
0.0
  0
LINE
  5
89CA
  8
0
 10
47.488145416243214
 20
25.381156364687971
 30
0.0
 11
47.488145416243214
 21
27.189471494755011
 31
0.0
  0
LINE
  5
89CB
  8
0
 10
50.984006875576817
 20
25.355334955321631
 30
0.0
 11
50.984006875576817
 21
27.189471494755011
 31
0.0
  0
POLYLINE
  5
89CD
  8
0
 10
47.509703837789793
 20
27.261610373617287
 30
0.0
 66
     1
 70
     8
  0
VERTEX
  8
0
  5
89FC
 10
47.5097
 20
27.2616
 30
0.000000
  70
    32
  0
VERTEX
  8
0
  5
89FD
 10
47.5029
 20
27.2492
 30
0.000000
  70
    32
  0
VERTEX
  8
0
  5
89FE
 10
47.4974
 20
27.2368
 30
0.000000
  70
    32
  0
VERTEX
  8
0
  5
89FF
 10
47.4931
 20
27.2243
 30
0.000000
  70
    32
  0
VERTEX
  8
0
  5
8A00
 10
47.4902
 20
27.2118
 30
0.000000
  70
    32
  0
VERTEX
  8
0
  5
8A01
 10
47.4885
 20
27.1992
 30
0.000000
  70
    32
  0
VERTEX
  8
0
  5
8A02
 10
47.4882
 20
27.1867
 30
0.000000
  70
    32
  0
VERTEX
  8
0
  5
8A03
 10
47.4891
 20
27.1742
 30
0.000000
  70
    32
  0
VERTEX
  8
0
  5
8A04
 10
47.4913
 20
27.1617
 30
0.000000
  70
    32
  0
VERTEX
  8
0
  5
8A05
 10
47.4948
 20
27.1492
 30
0.000000
  70
    32
  0
VERTEX
  8
0
  5
8A06
 10
47.4997
 20
27.1367
 30
0.000000
  70
    32
  0
VERTEX
  8
0
  5
8A07
 10
47.5057
 20
27.1243
 30
0.000000
  70
    32
  0
VERTEX
  8
0
  5
8A08
 10
47.5131
 20
27.1119
 30
0.000000
  70
    32
  0
VERTEX
  8
0
  5
8A09
 10
47.5218
 20
27.0996
 30
0.000000
  70
    32
  0
VERTEX
  8
0
  5
8A0A
 10
47.5317
 20
27.0873
 30
0.000000
  70
    32
  0
VERTEX
  8
0
  5
8A0B
 10
47.5428
 20
27.0751
 30
0.000000
  70
    32
  0
VERTEX
  8
0
  5
8A0C
 10
47.5553
 20
27.0630
 30
0.000000
  70
    32
  0
VERTEX
  8
0
  5
8A0D
 10
47.5689
 20
27.0510
 30
0.000000
  70
    32
  0
VERTEX
  8
0
  5
8A0E
 10
47.5838
 20
27.0391
 30
0.000000
  70
    32
  0
VERTEX
  8
0
  5
8A0F
 10
47.6000
 20
27.0273
 30
0.000000
  70
    32
  0
VERTEX
  8
0
  5
8A10
 10
47.6173
 20
27.0157
 30
0.000000
  70
    32
  0
VERTEX
  8
0
  5
8A11
 10
47.6358
 20
27.0041
 30
0.000000
  70
    32
  0
VERTEX
  8
0
  5
8A12
 10
47.6555
 20
26.9927
 30
0.000000
  70
    32
  0
VERTEX
  8
0
  5
8A13
 10
47.6764
 20
26.9815
 30
0.000000
  70
    32
  0
VERTEX
  8
0
  5
8A14
 10
47.6985
 20
26.9704
 30
0.000000
  70
    32
  0
VERTEX
  8
0
  5
8A15
 10
47.7217
 20
26.9594
 30
0.000000
  70
    32
  0
VERTEX
  8
0
  5
8A16
 10
47.7460
 20
26.9486
 30
0.000000
  70
    32
  0
VERTEX
  8
0
  5
8A17
 10
47.7714
 20
26.9380
 30
0.000000
  70
    32
  0
VERTEX
  8
0
  5
8A18
 10
47.7978
 20
26.9276
 30
0.000000
  70
    32
  0
VERTEX
  8
0
  5
8A19
 10
47.8254
 20
26.9174
 30
0.000000
  70
    32
  0
VERTEX
  8
0
  5
8A1A
 10
47.8540
 20
26.9074
 30
0.000000
  70
    32
  0
VERTEX
  8
0
  5
8A1B
 10
47.8836
 20
26.8976
 30
0.000000
  70
    32
  0
VERTEX
  8
0
  5
8A1C
 10
47.9142
 20
26.8880
 30
0.000000
  70
    32
  0
VERTEX
  8
0
  5
8A1D
 10
47.9458
 20
26.8786
 30
0.000000
  70
    32
  0
VERTEX
  8
0
  5
8A1E
 10
47.9784
 20
26.8695
 30
0.000000
  70
    32
  0
VERTEX
  8
0
  5
8A1F
 10
48.0119
 20
26.8606
 30
0.000000
  70
    32
  0
VERTEX
  8
0
  5
8A20
 10
48.0462
 20
26.8520
 30
0.000000
  70
    32
  0
VERTEX
  8
0
  5
8A21
 10
48.0815
 20
26.8436
 30
0.000000
  70
    32
  0
VERTEX
  8
0
  5
8A22
 10
48.1176
 20
26.8354
 30
0.000000
  70
    32
  0
VERTEX
  8
0
  5
8A23
 10
48.1546
 20
26.8275
 30
0.000000
  70
    32
  0
VERTEX
  8
0
  5
8A24
 10
48.1923
 20
26.8199
 30
0.000000
  70
    32
  0
VERTEX
  8
0
  5
8A25
 10
48.2308
 20
26.8126
 30
0.000000
  70
    32
  0
VERTEX
  8
0
  5
8A26
 10
48.2701
 20
26.8055
 30
0.000000
  70
    32
  0
VERTEX
  8
0
  5
8A27
 10
48.3101
 20
26.7987
 30
0.000000
  70
    32
  0
VERTEX
  8
0
  5
8A28
 10
48.3508
 20
26.7922
 30
0.000000
  70
    32
  0
VERTEX
  8
0
  5
8A29
 10
48.3921
 20
26.7860
 30
0.000000
  70
    32
  0
VERTEX
  8
0
  5
8A2A
 10
48.4340
 20
26.7801
 30
0.000000
  70
    32
  0
VERTEX
  8
0
  5
8A2B
 10
48.4766
 20
26.7745
 30
0.000000
  70
    32
  0
VERTEX
  8
0
  5
8A2C
 10
48.5197
 20
26.7692
 30
0.000000
  70
    32
  0
VERTEX
  8
0
  5
8A2D
 10
48.5633
 20
26.7642
 30
0.000000
  70
    32
  0
VERTEX
  8
0
  5
8A2E
 10
48.6074
 20
26.7596
 30
0.000000
  70
    32
  0
VERTEX
  8
0
  5
8A2F
 10
48.6520
 20
26.7552
 30
0.000000
  70
    32
  0
VERTEX
  8
0
  5
8A30
 10
48.6970
 20
26.7512
 30
0.000000
  70
    32
  0
VERTEX
  8
0
  5
8A31
 10
48.7425
 20
26.7475
 30
0.000000
  70
    32
  0
VERTEX
  8
0
  5
8A32
 10
48.7882
 20
26.7441
 30
0.000000
  70
    32
  0
VERTEX
  8
0
  5
8A33
 10
48.8344
 20
26.7411
 30
0.000000
  70
    32
  0
VERTEX
  8
0
  5
8A34
 10
48.8808
 20
26.7384
 30
0.000000
  70
    32
  0
VERTEX
  8
0
  5
8A35
 10
48.9275
 20
26.7360
 30
0.000000
  70
    32
  0
VERTEX
  8
0
  5
8A36
 10
48.9744
 20
26.7339
 30
0.000000
  70
    32
  0
VERTEX
  8
0
  5
8A37
 10
49.0215
 20
26.7322
 30
0.000000
  70
    32
  0
VERTEX
  8
0
  5
8A38
 10
49.0687
 20
26.7309
 30
0.000000
  70
    32
  0
VERTEX
  8
0
  5
8A39
 10
49.1161
 20
26.7298
 30
0.000000
  70
    32
  0
VERTEX
  8
0
  5
8A3A
 10
49.1636
 20
26.7291
 30
0.000000
  70
    32
  0
VERTEX
  8
0
  5
8A3B
 10
49.2111
 20
26.7288
 30
0.000000
  70
    32
  0
VERTEX
  8
0
  5
8A3C
 10
49.2587
 20
26.7288
 30
0.000000
  70
    32
  0
VERTEX
  8
0
  5
8A3D
 10
49.3062
 20
26.7291
 30
0.000000
  70
    32
  0
VERTEX
  8
0
  5
8A3E
 10
49.3537
 20
26.7298
 30
0.000000
  70
    32
  0
VERTEX
  8
0
  5
8A3F
 10
49.4011
 20
26.7308
 30
0.000000
  70
    32
  0
VERTEX
  8
0
  5
8A40
 10
49.4483
 20
26.7321
 30
0.000000
  70
    32
  0
VERTEX
  8
0
  5
8A41
 10
49.4955
 20
26.7338
 30
0.000000
  70
    32
  0
VERTEX
  8
0
  5
8A42
 10
49.5424
 20
26.7359
 30
0.000000
  70
    32
  0
VERTEX
  8
0
  5
8A43
 10
49.5891
 20
26.7382
 30
0.000000
  70
    32
  0
VERTEX
  8
0
  5
8A44
 10
49.6355
 20
26.7409
 30
0.000000
  70
    32
  0
VERTEX
  8
0
  5
8A45
 10
49.6816
 20
26.7440
 30
0.000000
  70
    32
  0
VERTEX
  8
0
  5
8A46
 10
49.7274
 20
26.7473
 30
0.000000
  70
    32
  0
VERTEX
  8
0
  5
8A47
 10
49.7729
 20
26.7510
 30
0.000000
  70
    32
  0
VERTEX
  8
0
  5
8A48
 10
49.8179
 20
26.7550
 30
0.000000
  70
    32
  0
VERTEX
  8
0
  5
8A49
 10
49.8625
 20
26.7593
 30
0.000000
  70
    32
  0
VERTEX
  8
0
  5
8A4A
 10
49.9067
 20
26.7640
 30
0.000000
  70
    32
  0
VERTEX
  8
0
  5
8A4B
 10
49.9503
 20
26.7690
 30
0.000000
  70
    32
  0
VERTEX
  8
0
  5
8A4C
 10
49.9935
 20
26.7742
 30
0.000000
  70
    32
  0
VERTEX
  8
0
  5
8A4D
 10
50.0360
 20
26.7798
 30
0.000000
  70
    32
  0
VERTEX
  8
0
  5
8A4E
 10
50.0780
 20
26.7857
 30
0.000000
  70
    32
  0
VERTEX
  8
0
  5
8A4F
 10
50.1194
 20
26.7919
 30
0.000000
  70
    32
  0
VERTEX
  8
0
  5
8A50
 10
50.1601
 20
26.7984
 30
0.000000
  70
    32
  0
VERTEX
  8
0
  5
8A51
 10
50.2001
 20
26.8051
 30
0.000000
  70
    32
  0
VERTEX
  8
0
  5
8A52
 10
50.2394
 20
26.8122
 30
0.000000
  70
    32
  0
VERTEX
  8
0
  5
8A53
 10
50.2779
 20
26.8195
 30
0.000000
  70
    32
  0
VERTEX
  8
0
  5
8A54
 10
50.3157
 20
26.8271
 30
0.000000
  70
    32
  0
VERTEX
  8
0
  5
8A55
 10
50.3527
 20
26.8350
 30
0.000000
  70
    32
  0
VERTEX
  8
0
  5
8A56
 10
50.3889
 20
26.8431
 30
0.000000
  70
    32
  0
VERTEX
  8
0
  5
8A57
 10
50.4242
 20
26.8515
 30
0.000000
  70
    32
  0
VERTEX
  8
0
  5
8A58
 10
50.4586
 20
26.8602
 30
0.000000
  70
    32
  0
VERTEX
  8
0
  5
8A59
 10
50.4921
 20
26.8691
 30
0.000000
  70
    32
  0
VERTEX
  8
0
  5
8A5A
 10
50.5247
 20
26.8782
 30
0.000000
  70
    32
  0
VERTEX
  8
0
  5
8A5B
 10
50.5564
 20
26.8875
 30
0.000000
  70
    32
  0
VERTEX
  8
0
  5
8A5C
 10
50.5871
 20
26.8971
 30
0.000000
  70
    32
  0
VERTEX
  8
0
  5
8A5D
 10
50.6167
 20
26.9069
 30
0.000000
  70
    32
  0
VERTEX
  8
0
  5
8A5E
 10
50.6454
 20
26.9169
 30
0.000000
  70
    32
  0
VERTEX
  8
0
  5
8A5F
 10
50.6730
 20
26.9271
 30
0.000000
  70
    32
  0
VERTEX
  8
0
  5
8A60
 10
50.6995
 20
26.9375
 30
0.000000
  70
    32
  0
VERTEX
  8
0
  5
8A61
 10
50.7250
 20
26.9481
 30
0.000000
  70
    32
  0
VERTEX
  8
0
  5
8A62
 10
50.7493
 20
26.9589
 30
0.000000
  70
    32
  0
VERTEX
  8
0
  5
8A63
 10
50.7726
 20
26.9698
 30
0.000000
  70
    32
  0
VERTEX
  8
0
  5
8A64
 10
50.7947
 20
26.9809
 30
0.000000
  70
    32
  0
VERTEX
  8
0
  5
8A65
 10
50.8156
 20
26.9922
 30
0.000000
  70
    32
  0
VERTEX
  8
0
  5
8A66
 10
50.8354
 20
27.0036
 30
0.000000
  70
    32
  0
VERTEX
  8
0
  5
8A67
 10
50.8540
 20
27.0151
 30
0.000000
  70
    32
  0
VERTEX
  8
0
  5
8A68
 10
50.8714
 20
27.0267
 30
0.000000
  70
    32
  0
VERTEX
  8
0
  5
8A69
 10
50.8875
 20
27.0385
 30
0.000000
  70
    32
  0
VERTEX
  8
0
  5
8A6A
 10
50.9025
 20
27.0504
 30
0.000000
  70
    32
  0
VERTEX
  8
0
  5
8A6B
 10
50.9162
 20
27.0624
 30
0.000000
  70
    32
  0
VERTEX
  8
0
  5
8A6C
 10
50.9287
 20
27.0745
 30
0.000000
  70
    32
  0
VERTEX
  8
0
  5
8A6D
 10
50.9400
 20
27.0867
 30
0.000000
  70
    32
  0
VERTEX
  8
0
  5
8A6E
 10
50.9499
 20
27.0990
 30
0.000000
  70
    32
  0
VERTEX
  8
0
  5
8A6F
 10
50.9586
 20
27.1113
 30
0.000000
  70
    32
  0
VERTEX
  8
0
  5
8A70
 10
50.9661
 20
27.1237
 30
0.000000
  70
    32
  0
VERTEX
  8
0
  5
8A71
 10
50.9722
 20
27.1361
 30
0.000000
  70
    32
  0
VERTEX
  8
0
  5
8A72
 10
50.9771
 20
27.1485
 30
0.000000
  70
    32
  0
VERTEX
  8
0
  5
8A73
 10
50.9807
 20
27.1610
 30
0.000000
  70
    32
  0
VERTEX
  8
0
  5
8A74
 10
50.9830
 20
27.1736
 30
0.000000
  70
    32
  0
VERTEX
  8
0
  5
8A75
 10
50.9840
 20
27.1861
 30
0.000000
  70
    32
  0
VERTEX
  8
0
  5
8A76
 10
50.9837
 20
27.1986
 30
0.000000
  70
    32
  0
VERTEX
  8
0
  5
8A77
 10
50.9821
 20
27.2111
 30
0.000000
  70
    32
  0
VERTEX
  8
0
  5
8A78
 10
50.9792
 20
27.2237
 30
0.000000
  70
    32
  0
VERTEX
  8
0
  5
8A79
 10
50.9750
 20
27.2361
 30
0.000000
  70
    32
  0
VERTEX
  8
0
  5
8A7A
 10
50.9696
 20
27.2486
 30
0.000000
  70
    32
  0
VERTEX
  8
0
  5
8A7B
 10
50.9628
 20
27.2610
 30
0.000000
  70
    32
  0
VERTEX
  8
0
  5
8A7C
 10
50.9548
 20
27.2734
 30
0.000000
  70
    32
  0
SEQEND
  8
0
  5
8A7D
  0
LINE
  5
89CE
  8
0
 10
47.738179809668758
 20
27.17987480178288
 30
0.0
 11
47.738179809668758
 21
28.3431953515312
 31
0.0
  0
LINE
  5
89CF
  8
0
 10
50.666406683689772
 20
27.17987480178288
 30
0.0
 11
50.666406683689772
 21
28.3431953515312
 31
0.0
  0
POLYLINE
  5
89D1
  8
0
 10
47.738179809668765
 20
28.3431953515312
 30
0.0
 66
     1
 70
     8
  0
VERTEX
  8
0
  5
8A7E
 10
47.7382
 20
28.3432
 30
0.000000
  70
    32
  0
VERTEX
  8
0
  5
8A7F
 10
47.7399
 20
28.3206
 30
0.000000
  70
    32
  0
VERTEX
  8
0
  5
8A80
 10
47.7452
 20
28.2981
 30
0.000000
  70
    32
  0
VERTEX
  8
0
  5
8A81
 10
47.7540
 20
28.2756
 30
0.000000
  70
    32
  0
VERTEX
  8
0
  5
8A82
 10
47.7663
 20
28.2534
 30
0.000000
  70
    32
  0
VERTEX
  8
0
  5
8A83
 10
47.7821
 20
28.2313
 30
0.000000
  70
    32
  0
VERTEX
  8
0
  5
8A84
 10
47.8012
 20
28.2095
 30
0.000000
  70
    32
  0
VERTEX
  8
0
  5
8A85
 10
47.8238
 20
28.1881
 30
0.000000
  70
    32
  0
VERTEX
  8
0
  5
8A86
 10
47.8496
 20
28.1670
 30
0.000000
  70
    32
  0
VERTEX
  8
0
  5
8A87
 10
47.8788
 20
28.1463
 30
0.000000
  70
    32
  0
VERTEX
  8
0
  5
8A88
 10
47.9111
 20
28.1262
 30
0.000000
  70
    32
  0
VERTEX
  8
0
  5
8A89
 10
47.9465
 20
28.1065
 30
0.000000
  70
    32
  0
VERTEX
  8
0
  5
8A8A
 10
47.9849
 20
28.0874
 30
0.000000
  70
    32
  0
VERTEX
  8
0
  5
8A8B
 10
48.0263
 20
28.0689
 30
0.000000
  70
    32
  0
VERTEX
  8
0
  5
8A8C
 10
48.0705
 20
28.0511
 30
0.000000
  70
    32
  0
VERTEX
  8
0
  5
8A8D
 10
48.1175
 20
28.0340
 30
0.000000
  70
    32
  0
VERTEX
  8
0
  5
8A8E
 10
48.1670
 20
28.0176
 30
0.000000
  70
    32
  0
VERTEX
  8
0
  5
8A8F
 10
48.2191
 20
28.0020
 30
0.000000
  70
    32
  0
VERTEX
  8
0
  5
8A90
 10
48.2735
 20
27.9873
 30
0.000000
  70
    32
  0
VERTEX
  8
0
  5
8A91
 10
48.3301
 20
27.9734
 30
0.000000
  70
    32
  0
VERTEX
  8
0
  5
8A92
 10
48.3889
 20
27.9604
 30
0.000000
  70
    32
  0
VERTEX
  8
0
  5
8A93
 10
48.4496
 20
27.9483
 30
0.000000
  70
    32
  0
VERTEX
  8
0
  5
8A94
 10
48.5121
 20
27.9371
 30
0.000000
  70
    32
  0
VERTEX
  8
0
  5
8A95
 10
48.5763
 20
27.9270
 30
0.000000
  70
    32
  0
VERTEX
  8
0
  5
8A96
 10
48.6420
 20
27.9178
 30
0.000000
  70
    32
  0
VERTEX
  8
0
  5
8A97
 10
48.7090
 20
27.9097
 30
0.000000
  70
    32
  0
VERTEX
  8
0
  5
8A98
 10
48.7773
 20
27.9026
 30
0.000000
  70
    32
  0
VERTEX
  8
0
  5
8A99
 10
48.8465
 20
27.8966
 30
0.000000
  70
    32
  0
VERTEX
  8
0
  5
8A9A
 10
48.9167
 20
27.8916
 30
0.000000
  70
    32
  0
VERTEX
  8
0
  5
8A9B
 10
48.9875
 20
27.8878
 30
0.000000
  70
    32
  0
VERTEX
  8
0
  5
8A9C
 10
49.0588
 20
27.8850
 30
0.000000
  70
    32
  0
VERTEX
  8
0
  5
8A9D
 10
49.1305
 20
27.8833
 30
0.000000
  70
    32
  0
VERTEX
  8
0
  5
8A9E
 10
49.2023
 20
27.8828
 30
0.000000
  70
    32
  0
VERTEX
  8
0
  5
8A9F
 10
49.2741
 20
27.8833
 30
0.000000
  70
    32
  0
VERTEX
  8
0
  5
8AA0
 10
49.3458
 20
27.8850
 30
0.000000
  70
    32
  0
VERTEX
  8
0
  5
8AA1
 10
49.4171
 20
27.8878
 30
0.000000
  70
    32
  0
VERTEX
  8
0
  5
8AA2
 10
49.4879
 20
27.8916
 30
0.000000
  70
    32
  0
VERTEX
  8
0
  5
8AA3
 10
49.5580
 20
27.8966
 30
0.000000
  70
    32
  0
VERTEX
  8
0
  5
8AA4
 10
49.6273
 20
27.9026
 30
0.000000
  70
    32
  0
VERTEX
  8
0
  5
8AA5
 10
49.6955
 20
27.9097
 30
0.000000
  70
    32
  0
VERTEX
  8
0
  5
8AA6
 10
49.7626
 20
27.9178
 30
0.000000
  70
    32
  0
VERTEX
  8
0
  5
8AA7
 10
49.8283
 20
27.9270
 30
0.000000
  70
    32
  0
VERTEX
  8
0
  5
8AA8
 10
49.8925
 20
27.9371
 30
0.000000
  70
    32
  0
VERTEX
  8
0
  5
8AA9
 10
49.9550
 20
27.9483
 30
0.000000
  70
    32
  0
VERTEX
  8
0
  5
8AAA
 10
50.0157
 20
27.9604
 30
0.000000
  70
    32
  0
VERTEX
  8
0
  5
8AAB
 10
50.0745
 20
27.9734
 30
0.000000
  70
    32
  0
VERTEX
  8
0
  5
8AAC
 10
50.1311
 20
27.9873
 30
0.000000
  70
    32
  0
VERTEX
  8
0
  5
8AAD
 10
50.1855
 20
28.0020
 30
0.000000
  70
    32
  0
VERTEX
  8
0
  5
8AAE
 10
50.2376
 20
28.0176
 30
0.000000
  70
    32
  0
VERTEX
  8
0
  5
8AAF
 10
50.2871
 20
28.0340
 30
0.000000
  70
    32
  0
VERTEX
  8
0
  5
8AB0
 10
50.3341
 20
28.0511
 30
0.000000
  70
    32
  0
VERTEX
  8
0
  5
8AB1
 10
50.3783
 20
28.0689
 30
0.000000
  70
    32
  0
VERTEX
  8
0
  5
8AB2
 10
50.4197
 20
28.0874
 30
0.000000
  70
    32
  0
VERTEX
  8
0
  5
8AB3
 10
50.4581
 20
28.1065
 30
0.000000
  70
    32
  0
VERTEX
  8
0
  5
8AB4
 10
50.4935
 20
28.1262
 30
0.000000
  70
    32
  0
VERTEX
  8
0
  5
8AB5
 10
50.5258
 20
28.1463
 30
0.000000
  70
    32
  0
VERTEX
  8
0
  5
8AB6
 10
50.5550
 20
28.1670
 30
0.000000
  70
    32
  0
VERTEX
  8
0
  5
8AB7
 10
50.5808
 20
28.1881
 30
0.000000
  70
    32
  0
VERTEX
  8
0
  5
8AB8
 10
50.6034
 20
28.2095
 30
0.000000
  70
    32
  0
VERTEX
  8
0
  5
8AB9
 10
50.6225
 20
28.2313
 30
0.000000
  70
    32
  0
VERTEX
  8
0
  5
8ABA
 10
50.6383
 20
28.2534
 30
0.000000
  70
    32
  0
VERTEX
  8
0
  5
8ABB
 10
50.6506
 20
28.2756
 30
0.000000
  70
    32
  0
VERTEX
  8
0
  5
8ABC
 10
50.6594
 20
28.2981
 30
0.000000
  70
    32
  0
VERTEX
  8
0
  5
8ABD
 10
50.6646
 20
28.3206
 30
0.000000
  70
    32
  0
VERTEX
  8
0
  5
8ABE
 10
50.6664
 20
28.3432
 30
0.000000
  70
    32
  0
VERTEX
  8
0
  5
8ABF
 10
50.6646
 20
28.3658
 30
0.000000
  70
    32
  0
VERTEX
  8
0
  5
8AC0
 10
50.6594
 20
28.3883
 30
0.000000
  70
    32
  0
VERTEX
  8
0
  5
8AC1
 10
50.6506
 20
28.4108
 30
0.000000
  70
    32
  0
VERTEX
  8
0
  5
8AC2
 10
50.6383
 20
28.4330
 30
0.000000
  70
    32
  0
VERTEX
  8
0
  5
8AC3
 10
50.6225
 20
28.4551
 30
0.000000
  70
    32
  0
VERTEX
  8
0
  5
8AC4
 10
50.6034
 20
28.4769
 30
0.000000
  70
    32
  0
VERTEX
  8
0
  5
8AC5
 10
50.5808
 20
28.4983
 30
0.000000
  70
    32
  0
VERTEX
  8
0
  5
8AC6
 10
50.5550
 20
28.5194
 30
0.000000
  70
    32
  0
VERTEX
  8
0
  5
8AC7
 10
50.5258
 20
28.5401
 30
0.000000
  70
    32
  0
VERTEX
  8
0
  5
8AC8
 10
50.4935
 20
28.5602
 30
0.000000
  70
    32
  0
VERTEX
  8
0
  5
8AC9
 10
50.4581
 20
28.5799
 30
0.000000
  70
    32
  0
VERTEX
  8
0
  5
8ACA
 10
50.4197
 20
28.5990
 30
0.000000
  70
    32
  0
VERTEX
  8
0
  5
8ACB
 10
50.3783
 20
28.6175
 30
0.000000
  70
    32
  0
VERTEX
  8
0
  5
8ACC
 10
50.3341
 20
28.6353
 30
0.000000
  70
    32
  0
VERTEX
  8
0
  5
8ACD
 10
50.2871
 20
28.6524
 30
0.000000
  70
    32
  0
VERTEX
  8
0
  5
8ACE
 10
50.2376
 20
28.6688
 30
0.000000
  70
    32
  0
VERTEX
  8
0
  5
8ACF
 10
50.1855
 20
28.6843
 30
0.000000
  70
    32
  0
VERTEX
  8
0
  5
8AD0
 10
50.1311
 20
28.6991
 30
0.000000
  70
    32
  0
VERTEX
  8
0
  5
8AD1
 10
50.0745
 20
28.7130
 30
0.000000
  70
    32
  0
VERTEX
  8
0
  5
8AD2
 10
50.0157
 20
28.7260
 30
0.000000
  70
    32
  0
VERTEX
  8
0
  5
8AD3
 10
49.9550
 20
28.7381
 30
0.000000
  70
    32
  0
VERTEX
  8
0
  5
8AD4
 10
49.8925
 20
28.7493
 30
0.000000
  70
    32
  0
VERTEX
  8
0
  5
8AD5
 10
49.8283
 20
28.7594
 30
0.000000
  70
    32
  0
VERTEX
  8
0
  5
8AD6
 10
49.7626
 20
28.7686
 30
0.000000
  70
    32
  0
VERTEX
  8
0
  5
8AD7
 10
49.6955
 20
28.7767
 30
0.000000
  70
    32
  0
VERTEX
  8
0
  5
8AD8
 10
49.6273
 20
28.7838
 30
0.000000
  70
    32
  0
VERTEX
  8
0
  5
8AD9
 10
49.5580
 20
28.7898
 30
0.000000
  70
    32
  0
VERTEX
  8
0
  5
8ADA
 10
49.4879
 20
28.7948
 30
0.000000
  70
    32
  0
VERTEX
  8
0
  5
8ADB
 10
49.4171
 20
28.7986
 30
0.000000
  70
    32
  0
VERTEX
  8
0
  5
8ADC
 10
49.3458
 20
28.8014
 30
0.000000
  70
    32
  0
VERTEX
  8
0
  5
8ADD
 10
49.2741
 20
28.8031
 30
0.000000
  70
    32
  0
VERTEX
  8
0
  5
8ADE
 10
49.2023
 20
28.8036
 30
0.000000
  70
    32
  0
VERTEX
  8
0
  5
8ADF
 10
49.1305
 20
28.8031
 30
0.000000
  70
    32
  0
VERTEX
  8
0
  5
8AE0
 10
49.0588
 20
28.8014
 30
0.000000
  70
    32
  0
VERTEX
  8
0
  5
8AE1
 10
48.9875
 20
28.7986
 30
0.000000
  70
    32
  0
VERTEX
  8
0
  5
8AE2
 10
48.9167
 20
28.7948
 30
0.000000
  70
    32
  0
VERTEX
  8
0
  5
8AE3
 10
48.8465
 20
28.7898
 30
0.000000
  70
    32
  0
VERTEX
  8
0
  5
8AE4
 10
48.7773
 20
28.7838
 30
0.000000
  70
    32
  0
VERTEX
  8
0
  5
8AE5
 10
48.7090
 20
28.7767
 30
0.000000
  70
    32
  0
VERTEX
  8
0
  5
8AE6
 10
48.6420
 20
28.7686
 30
0.000000
  70
    32
  0
VERTEX
  8
0
  5
8AE7
 10
48.5763
 20
28.7594
 30
0.000000
  70
    32
  0
VERTEX
  8
0
  5
8AE8
 10
48.5121
 20
28.7493
 30
0.000000
  70
    32
  0
VERTEX
  8
0
  5
8AE9
 10
48.4496
 20
28.7381
 30
0.000000
  70
    32
  0
VERTEX
  8
0
  5
8AEA
 10
48.3889
 20
28.7260
 30
0.000000
  70
    32
  0
VERTEX
  8
0
  5
8AEB
 10
48.3301
 20
28.7130
 30
0.000000
  70
    32
  0
VERTEX
  8
0
  5
8AEC
 10
48.2735
 20
28.6991
 30
0.000000
  70
    32
  0
VERTEX
  8
0
  5
8AED
 10
48.2191
 20
28.6843
 30
0.000000
  70
    32
  0
VERTEX
  8
0
  5
8AEE
 10
48.1670
 20
28.6688
 30
0.000000
  70
    32
  0
VERTEX
  8
0
  5
8AEF
 10
48.1175
 20
28.6524
 30
0.000000
  70
    32
  0
VERTEX
  8
0
  5
8AF0
 10
48.0705
 20
28.6353
 30
0.000000
  70
    32
  0
VERTEX
  8
0
  5
8AF1
 10
48.0263
 20
28.6175
 30
0.000000
  70
    32
  0
VERTEX
  8
0
  5
8AF2
 10
47.9849
 20
28.5990
 30
0.000000
  70
    32
  0
VERTEX
  8
0
  5
8AF3
 10
47.9465
 20
28.5799
 30
0.000000
  70
    32
  0
VERTEX
  8
0
  5
8AF4
 10
47.9111
 20
28.5602
 30
0.000000
  70
    32
  0
VERTEX
  8
0
  5
8AF5
 10
47.8788
 20
28.5401
 30
0.000000
  70
    32
  0
VERTEX
  8
0
  5
8AF6
 10
47.8496
 20
28.5194
 30
0.000000
  70
    32
  0
VERTEX
  8
0
  5
8AF7
 10
47.8238
 20
28.4983
 30
0.000000
  70
    32
  0
VERTEX
  8
0
  5
8AF8
 10
47.8012
 20
28.4769
 30
0.000000
  70
    32
  0
VERTEX
  8
0
  5
8AF9
 10
47.7821
 20
28.4551
 30
0.000000
  70
    32
  0
VERTEX
  8
0
  5
8AFA
 10
47.7663
 20
28.4330
 30
0.000000
  70
    32
  0
VERTEX
  8
0
  5
8AFB
 10
47.7540
 20
28.4108
 30
0.000000
  70
    32
  0
VERTEX
  8
0
  5
8AFC
 10
47.7452
 20
28.3883
 30
0.000000
  70
    32
  0
VERTEX
  8
0
  5
8AFD
 10
47.7399
 20
28.3658
 30
0.000000
  70
    32
  0
VERTEX
  8
0
  5
8AFE
 10
47.7382
 20
28.3432
 30
0.000000
  70
    32
  0
SEQEND
  8
0
  5
8AFF
  0
POLYLINE
  5
89D2
  8
0
 10
47.873921781569379
 20
28.363741546180481
 30
0.0
 66
     1
 70
     8
  0
VERTEX
  8
0
  5
8B00
 10
47.8739
 20
28.3637
 30
0.000000
  70
    32
  0
VERTEX
  8
0
  5
8B01
 10
47.8755
 20
28.3485
 30
0.000000
  70
    32
  0
VERTEX
  8
0
  5
8B02
 10
47.8803
 20
28.3334
 30
0.000000
  70
    32
  0
VERTEX
  8
0
  5
8B03
 10
47.8883
 20
28.3183
 30
0.000000
  70
    32
  0
VERTEX
  8
0
  5
8B04
 10
47.8995
 20
28.3033
 30
0.000000
  70
    32
  0
VERTEX
  8
0
  5
8B05
 10
47.9139
 20
28.2884
 30
0.000000
  70
    32
  0
VERTEX
  8
0
  5
8B06
 10
47.9313
 20
28.2738
 30
0.000000
  70
    32
  0
VERTEX
  8
0
  5
8B07
 10
47.9518
 20
28.2593
 30
0.000000
  70
    32
  0
VERTEX
  8
0
  5
8B08
 10
47.9753
 20
28.2451
 30
0.000000
  70
    32
  0
VERTEX
  8
0
  5
8B09
 10
48.0018
 20
28.2312
 30
0.000000
  70
    32
  0
VERTEX
  8
0
  5
8B0A
 10
48.0313
 20
28.2176
 30
0.000000
  70
    32
  0
VERTEX
  8
0
  5
8B0B
 10
48.0635
 20
28.2044
 30
0.000000
  70
    32
  0
VERTEX
  8
0
  5
8B0C
 10
48.0985
 20
28.1916
 30
0.000000
  70
    32
  0
VERTEX
  8
0
  5
8B0D
 10
48.1361
 20
28.1791
 30
0.000000
  70
    32
  0
VERTEX
  8
0
  5
8B0E
 10
48.1764
 20
28.1671
 30
0.000000
  70
    32
  0
VERTEX
  8
0
  5
8B0F
 10
48.2191
 20
28.1556
 30
0.000000
  70
    32
  0
VERTEX
  8
0
  5
8B10
 10
48.2642
 20
28.1446
 30
0.000000
  70
    32
  0
VERTEX
  8
0
  5
8B11
 10
48.3115
 20
28.1341
 30
0.000000
  70
    32
  0
VERTEX
  8
0
  5
8B12
 10
48.3611
 20
28.1242
 30
0.000000
  70
    32
  0
VERTEX
  8
0
  5
8B13
 10
48.4126
 20
28.1148
 30
0.000000
  70
    32
  0
VERTEX
  8
0
  5
8B14
 10
48.4661
 20
28.1060
 30
0.000000
  70
    32
  0
VERTEX
  8
0
  5
8B15
 10
48.5213
 20
28.0979
 30
0.000000
  70
    32
  0
VERTEX
  8
0
  5
8B16
 10
48.5782
 20
28.0904
 30
0.000000
  70
    32
  0
VERTEX
  8
0
  5
8B17
 10
48.6367
 20
28.0836
 30
0.000000
  70
    32
  0
VERTEX
  8
0
  5
8B18
 10
48.6965
 20
28.0774
 30
0.000000
  70
    32
  0
VERTEX
  8
0
  5
8B19
 10
48.7575
 20
28.0719
 30
0.000000
  70
    32
  0
VERTEX
  8
0
  5
8B1A
 10
48.8196
 20
28.0672
 30
0.000000
  70
    32
  0
VERTEX
  8
0
  5
8B1B
 10
48.8826
 20
28.0631
 30
0.000000
  70
    32
  0
VERTEX
  8
0
  5
8B1C
 10
48.9464
 20
28.0598
 30
0.000000
  70
    32
  0
VERTEX
  8
0
  5
8B1D
 10
49.0108
 20
28.0572
 30
0.000000
  70
    32
  0
VERTEX
  8
0
  5
8B1E
 10
49.0757
 20
28.0553
 30
0.000000
  70
    32
  0
VERTEX
  8
0
  5
8B1F
 10
49.1410
 20
28.0542
 30
0.000000
  70
    32
  0
VERTEX
  8
0
  5
8B20
 10
49.2064
 20
28.0538
 30
0.000000
  70
    32
  0
VERTEX
  8
0
  5
8B21
 10
49.2717
 20
28.0542
 30
0.000000
  70
    32
  0
VERTEX
  8
0
  5
8B22
 10
49.3370
 20
28.0553
 30
0.000000
  70
    32
  0
VERTEX
  8
0
  5
8B23
 10
49.4019
 20
28.0572
 30
0.000000
  70
    32
  0
VERTEX
  8
0
  5
8B24
 10
49.4663
 20
28.0598
 30
0.000000
  70
    32
  0
VERTEX
  8
0
  5
8B25
 10
49.5301
 20
28.0631
 30
0.000000
  70
    32
  0
VERTEX
  8
0
  5
8B26
 10
49.5931
 20
28.0672
 30
0.000000
  70
    32
  0
VERTEX
  8
0
  5
8B27
 10
49.6552
 20
28.0719
 30
0.000000
  70
    32
  0
VERTEX
  8
0
  5
8B28
 10
49.7162
 20
28.0774
 30
0.000000
  70
    32
  0
VERTEX
  8
0
  5
8B29
 10
49.7760
 20
28.0836
 30
0.000000
  70
    32
  0
VERTEX
  8
0
  5
8B2A
 10
49.8345
 20
28.0904
 30
0.000000
  70
    32
  0
VERTEX
  8
0
  5
8B2B
 10
49.8914
 20
28.0979
 30
0.000000
  70
    32
  0
VERTEX
  8
0
  5
8B2C
 10
49.9466
 20
28.1060
 30
0.000000
  70
    32
  0
VERTEX
  8
0
  5
8B2D
 10
50.0001
 20
28.1148
 30
0.000000
  70
    32
  0
VERTEX
  8
0
  5
8B2E
 10
50.0516
 20
28.1242
 30
0.000000
  70
    32
  0
VERTEX
  8
0
  5
8B2F
 10
50.1012
 20
28.1341
 30
0.000000
  70
    32
  0
VERTEX
  8
0
  5
8B30
 10
50.1485
 20
28.1446
 30
0.000000
  70
    32
  0
VERTEX
  8
0
  5
8B31
 10
50.1936
 20
28.1556
 30
0.000000
  70
    32
  0
VERTEX
  8
0
  5
8B32
 10
50.2363
 20
28.1671
 30
0.000000
  70
    32
  0
VERTEX
  8
0
  5
8B33
 10
50.2766
 20
28.1791
 30
0.000000
  70
    32
  0
VERTEX
  8
0
  5
8B34
 10
50.3142
 20
28.1916
 30
0.000000
  70
    32
  0
VERTEX
  8
0
  5
8B35
 10
50.3492
 20
28.2044
 30
0.000000
  70
    32
  0
VERTEX
  8
0
  5
8B36
 10
50.3814
 20
28.2176
 30
0.000000
  70
    32
  0
VERTEX
  8
0
  5
8B37
 10
50.4109
 20
28.2312
 30
0.000000
  70
    32
  0
VERTEX
  8
0
  5
8B38
 10
50.4374
 20
28.2451
 30
0.000000
  70
    32
  0
VERTEX
  8
0
  5
8B39
 10
50.4609
 20
28.2593
 30
0.000000
  70
    32
  0
VERTEX
  8
0
  5
8B3A
 10
50.4814
 20
28.2738
 30
0.000000
  70
    32
  0
VERTEX
  8
0
  5
8B3B
 10
50.4988
 20
28.2884
 30
0.000000
  70
    32
  0
VERTEX
  8
0
  5
8B3C
 10
50.5132
 20
28.3033
 30
0.000000
  70
    32
  0
VERTEX
  8
0
  5
8B3D
 10
50.5244
 20
28.3183
 30
0.000000
  70
    32
  0
VERTEX
  8
0
  5
8B3E
 10
50.5324
 20
28.3334
 30
0.000000
  70
    32
  0
VERTEX
  8
0
  5
8B3F
 10
50.5372
 20
28.3485
 30
0.000000
  70
    32
  0
VERTEX
  8
0
  5
8B40
 10
50.5388
 20
28.3637
 30
0.000000
  70
    32
  0
VERTEX
  8
0
  5
8B41
 10
50.5372
 20
28.3789
 30
0.000000
  70
    32
  0
VERTEX
  8
0
  5
8B42
 10
50.5324
 20
28.3941
 30
0.000000
  70
    32
  0
VERTEX
  8
0
  5
8B43
 10
50.5244
 20
28.4092
 30
0.000000
  70
    32
  0
VERTEX
  8
0
  5
8B44
 10
50.5132
 20
28.4242
 30
0.000000
  70
    32
  0
VERTEX
  8
0
  5
8B45
 10
50.4988
 20
28.4390
 30
0.000000
  70
    32
  0
VERTEX
  8
0
  5
8B46
 10
50.4814
 20
28.4537
 30
0.000000
  70
    32
  0
VERTEX
  8
0
  5
8B47
 10
50.4609
 20
28.4682
 30
0.000000
  70
    32
  0
VERTEX
  8
0
  5
8B48
 10
50.4374
 20
28.4823
 30
0.000000
  70
    32
  0
VERTEX
  8
0
  5
8B49
 10
50.4109
 20
28.4963
 30
0.000000
  70
    32
  0
VERTEX
  8
0
  5
8B4A
 10
50.3814
 20
28.5098
 30
0.000000
  70
    32
  0
VERTEX
  8
0
  5
8B4B
 10
50.3492
 20
28.5231
 30
0.000000
  70
    32
  0
VERTEX
  8
0
  5
8B4C
 10
50.3142
 20
28.5359
 30
0.000000
  70
    32
  0
VERTEX
  8
0
  5
8B4D
 10
50.2766
 20
28.5484
 30
0.000000
  70
    32
  0
VERTEX
  8
0
  5
8B4E
 10
50.2363
 20
28.5604
 30
0.000000
  70
    32
  0
VERTEX
  8
0
  5
8B4F
 10
50.1936
 20
28.5719
 30
0.000000
  70
    32
  0
VERTEX
  8
0
  5
8B50
 10
50.1485
 20
28.5829
 30
0.000000
  70
    32
  0
VERTEX
  8
0
  5
8B51
 10
50.1012
 20
28.5934
 30
0.000000
  70
    32
  0
VERTEX
  8
0
  5
8B52
 10
50.0516
 20
28.6033
 30
0.000000
  70
    32
  0
VERTEX
  8
0
  5
8B53
 10
50.0001
 20
28.6127
 30
0.000000
  70
    32
  0
VERTEX
  8
0
  5
8B54
 10
49.9466
 20
28.6214
 30
0.000000
  70
    32
  0
VERTEX
  8
0
  5
8B55
 10
49.8914
 20
28.6296
 30
0.000000
  70
    32
  0
VERTEX
  8
0
  5
8B56
 10
49.8345
 20
28.6371
 30
0.000000
  70
    32
  0
VERTEX
  8
0
  5
8B57
 10
49.7760
 20
28.6439
 30
0.000000
  70
    32
  0
VERTEX
  8
0
  5
8B58
 10
49.7162
 20
28.6501
 30
0.000000
  70
    32
  0
VERTEX
  8
0
  5
8B59
 10
49.6552
 20
28.6556
 30
0.000000
  70
    32
  0
VERTEX
  8
0
  5
8B5A
 10
49.5931
 20
28.6603
 30
0.000000
  70
    32
  0
VERTEX
  8
0
  5
8B5B
 10
49.5301
 20
28.6644
 30
0.000000
  70
    32
  0
VERTEX
  8
0
  5
8B5C
 10
49.4663
 20
28.6677
 30
0.000000
  70
    32
  0
VERTEX
  8
0
  5
8B5D
 10
49.4019
 20
28.6703
 30
0.000000
  70
    32
  0
VERTEX
  8
0
  5
8B5E
 10
49.3370
 20
28.6722
 30
0.000000
  70
    32
  0
VERTEX
  8
0
  5
8B5F
 10
49.2717
 20
28.6733
 30
0.000000
  70
    32
  0
VERTEX
  8
0
  5
8B60
 10
49.2064
 20
28.6737
 30
0.000000
  70
    32
  0
VERTEX
  8
0
  5
8B61
 10
49.1410
 20
28.6733
 30
0.000000
  70
    32
  0
VERTEX
  8
0
  5
8B62
 10
49.0757
 20
28.6722
 30
0.000000
  70
    32
  0
VERTEX
  8
0
  5
8B63
 10
49.0108
 20
28.6703
 30
0.000000
  70
    32
  0
VERTEX
  8
0
  5
8B64
 10
48.9464
 20
28.6677
 30
0.000000
  70
    32
  0
VERTEX
  8
0
  5
8B65
 10
48.8826
 20
28.6644
 30
0.000000
  70
    32
  0
VERTEX
  8
0
  5
8B66
 10
48.8196
 20
28.6603
 30
0.000000
  70
    32
  0
VERTEX
  8
0
  5
8B67
 10
48.7575
 20
28.6556
 30
0.000000
  70
    32
  0
VERTEX
  8
0
  5
8B68
 10
48.6965
 20
28.6501
 30
0.000000
  70
    32
  0
VERTEX
  8
0
  5
8B69
 10
48.6367
 20
28.6439
 30
0.000000
  70
    32
  0
VERTEX
  8
0
  5
8B6A
 10
48.5782
 20
28.6371
 30
0.000000
  70
    32
  0
VERTEX
  8
0
  5
8B6B
 10
48.5213
 20
28.6296
 30
0.000000
  70
    32
  0
VERTEX
  8
0
  5
8B6C
 10
48.4661
 20
28.6214
 30
0.000000
  70
    32
  0
VERTEX
  8
0
  5
8B6D
 10
48.4126
 20
28.6127
 30
0.000000
  70
    32
  0
VERTEX
  8
0
  5
8B6E
 10
48.3611
 20
28.6033
 30
0.000000
  70
    32
  0
VERTEX
  8
0
  5
8B6F
 10
48.3115
 20
28.5934
 30
0.000000
  70
    32
  0
VERTEX
  8
0
  5
8B70
 10
48.2642
 20
28.5829
 30
0.000000
  70
    32
  0
VERTEX
  8
0
  5
8B71
 10
48.2191
 20
28.5719
 30
0.000000
  70
    32
  0
VERTEX
  8
0
  5
8B72
 10
48.1764
 20
28.5604
 30
0.000000
  70
    32
  0
VERTEX
  8
0
  5
8B73
 10
48.1361
 20
28.5484
 30
0.000000
  70
    32
  0
VERTEX
  8
0
  5
8B74
 10
48.0985
 20
28.5359
 30
0.000000
  70
    32
  0
VERTEX
  8
0
  5
8B75
 10
48.0635
 20
28.5231
 30
0.000000
  70
    32
  0
VERTEX
  8
0
  5
8B76
 10
48.0313
 20
28.5098
 30
0.000000
  70
    32
  0
VERTEX
  8
0
  5
8B77
 10
48.0018
 20
28.4963
 30
0.000000
  70
    32
  0
VERTEX
  8
0
  5
8B78
 10
47.9753
 20
28.4823
 30
0.000000
  70
    32
  0
VERTEX
  8
0
  5
8B79
 10
47.9518
 20
28.4682
 30
0.000000
  70
    32
  0
VERTEX
  8
0
  5
8B7A
 10
47.9313
 20
28.4537
 30
0.000000
  70
    32
  0
VERTEX
  8
0
  5
8B7B
 10
47.9139
 20
28.4390
 30
0.000000
  70
    32
  0
VERTEX
  8
0
  5
8B7C
 10
47.8995
 20
28.4242
 30
0.000000
  70
    32
  0
VERTEX
  8
0
  5
8B7D
 10
47.8883
 20
28.4092
 30
0.000000
  70
    32
  0
VERTEX
  8
0
  5
8B7E
 10
47.8803
 20
28.3941
 30
0.000000
  70
    32
  0
VERTEX
  8
0
  5
8B7F
 10
47.8755
 20
28.3789
 30
0.000000
  70
    32
  0
VERTEX
  8
0
  5
8B80
 10
47.8739
 20
28.3637
 30
0.000000
  70
    32
  0
SEQEND
  8
0
  5
8B81
  0
ARC
  5
89D3
  8
0
 10
49.201059837557942
 20
24.340106919035421
 30
0.0
 40
3.7984671771054068
 50
80.666645685849886
 51
99.264717775919721
  0
ARC
  5
89E6
  8
0
 10
49.201059837557942
 20
24.41510691903542
 30
0.0
 40
3.7984671771054068
 50
77.322900945890936
 51
102.6030154336156
  0
ARC
  5
89E7
  8
0
 10
49.201059837557942
 20
24.490106919035409
 30
0.0
 40
3.7984671771054068
 50
74.823071126955213
 51
105.09600467405841
  0
ARC
  5
89E8
  8
0
 10
49.201059837557942
 20
24.565106919035419
 30
0.0
 40
3.7984671771054068
 50
72.833462408335606
 51
107.0766499317578
  0
ARC
  5
89E9
  8
0
 10
49.201059837557942
 20
24.640106919035421
 30
0.0
 40
3.7984671771054068
 50
71.247899793983635
 51
108.6497151911715
  0
ARC
  5
89EA
  8
0
 10
49.201059837557942
 20
24.715106919035421
 30
0.0
 40
3.7984671771054068
 50
70.065169318662043
 51
109.8131962692853
  0
ARC
  5
89EB
  8
0
 10
49.201059837557942
 20
24.79010691903542
 30
0.0
 40
3.7984671771054068
 50
69.414732421470774
 51
110.4278437394952
  0
ARC
  5
89EC
  8
0
 10
49.201059837557942
 20
24.865106919035419
 30
0.0
 40
3.7984671771054068
 50
69.914912680923365
 51
109.81467202561549
  0
POLYLINE
  5
89F2
  8
0
 10
47.738179809668765
 20
27.17987480178288
 30
0.0
 66
     1
 70
     8
  0
VERTEX
  8
0
  5
8B82
 10
47.7382
 20
27.1799
 30
0.000000
  70
    32
  0
VERTEX
  8
0
  5
8B83
 10
47.7386
 20
27.1718
 30
0.000000
  70
    32
  0
VERTEX
  8
0
  5
8B84
 10
47.7399
 20
27.1637
 30
0.000000
  70
    32
  0
VERTEX
  8
0
  5
8B85
 10
47.7421
 20
27.1557
 30
0.000000
  70
    32
  0
VERTEX
  8
0
  5
8B86
 10
47.7452
 20
27.1476
 30
0.000000
  70
    32
  0
VERTEX
  8
0
  5
8B87
 10
47.7492
 20
27.1396
 30
0.000000
  70
    32
  0
VERTEX
  8
0
  5
8B88
 10
47.7540
 20
27.1316
 30
0.000000
  70
    32
  0
VERTEX
  8
0
  5
8B89
 10
47.7597
 20
27.1237
 30
0.000000
  70
    32
  0
VERTEX
  8
0
  5
8B8A
 10
47.7663
 20
27.1157
 30
0.000000
  70
    32
  0
VERTEX
  8
0
  5
8B8B
 10
47.7738
 20
27.1078
 30
0.000000
  70
    32
  0
VERTEX
  8
0
  5
8B8C
 10
47.7821
 20
27.1000
 30
0.000000
  70
    32
  0
VERTEX
  8
0
  5
8B8D
 10
47.7912
 20
27.0922
 30
0.000000
  70
    32
  0
VERTEX
  8
0
  5
8B8E
 10
47.8012
 20
27.0844
 30
0.000000
  70
    32
  0
VERTEX
  8
0
  5
8B8F
 10
47.8121
 20
27.0767
 30
0.000000
  70
    32
  0
VERTEX
  8
0
  5
8B90
 10
47.8238
 20
27.0691
 30
0.000000
  70
    32
  0
VERTEX
  8
0
  5
8B91
 10
47.8363
 20
27.0615
 30
0.000000
  70
    32
  0
VERTEX
  8
0
  5
8B92
 10
47.8496
 20
27.0540
 30
0.000000
  70
    32
  0
VERTEX
  8
0
  5
8B93
 10
47.8638
 20
27.0466
 30
0.000000
  70
    32
  0
VERTEX
  8
0
  5
8B94
 10
47.8788
 20
27.0393
 30
0.000000
  70
    32
  0
VERTEX
  8
0
  5
8B95
 10
47.8945
 20
27.0320
 30
0.000000
  70
    32
  0
VERTEX
  8
0
  5
8B96
 10
47.9111
 20
27.0249
 30
0.000000
  70
    32
  0
VERTEX
  8
0
  5
8B97
 10
47.9284
 20
27.0178
 30
0.000000
  70
    32
  0
VERTEX
  8
0
  5
8B98
 10
47.9465
 20
27.0108
 30
0.000000
  70
    32
  0
VERTEX
  8
0
  5
8B99
 10
47.9653
 20
27.0040
 30
0.000000
  70
    32
  0
VERTEX
  8
0
  5
8B9A
 10
47.9849
 20
26.9972
 30
0.000000
  70
    32
  0
VERTEX
  8
0
  5
8B9B
 10
48.0053
 20
26.9905
 30
0.000000
  70
    32
  0
VERTEX
  8
0
  5
8B9C
 10
48.0263
 20
26.9840
 30
0.000000
  70
    32
  0
VERTEX
  8
0
  5
8B9D
 10
48.0481
 20
26.9776
 30
0.000000
  70
    32
  0
VERTEX
  8
0
  5
8B9E
 10
48.0705
 20
26.9713
 30
0.000000
  70
    32
  0
VERTEX
  8
0
  5
8B9F
 10
48.0937
 20
26.9651
 30
0.000000
  70
    32
  0
VERTEX
  8
0
  5
8BA0
 10
48.1175
 20
26.9591
 30
0.000000
  70
    32
  0
VERTEX
  8
0
  5
8BA1
 10
48.1419
 20
26.9532
 30
0.000000
  70
    32
  0
VERTEX
  8
0
  5
8BA2
 10
48.1670
 20
26.9474
 30
0.000000
  70
    32
  0
VERTEX
  8
0
  5
8BA3
 10
48.1927
 20
26.9417
 30
0.000000
  70
    32
  0
VERTEX
  8
0
  5
8BA4
 10
48.2191
 20
26.9363
 30
0.000000
  70
    32
  0
VERTEX
  8
0
  5
8BA5
 10
48.2460
 20
26.9309
 30
0.000000
  70
    32
  0
VERTEX
  8
0
  5
8BA6
 10
48.2735
 20
26.9257
 30
0.000000
  70
    32
  0
VERTEX
  8
0
  5
8BA7
 10
48.3015
 20
26.9207
 30
0.000000
  70
    32
  0
VERTEX
  8
0
  5
8BA8
 10
48.3301
 20
26.9158
 30
0.000000
  70
    32
  0
VERTEX
  8
0
  5
8BA9
 10
48.3592
 20
26.9111
 30
0.000000
  70
    32
  0
VERTEX
  8
0
  5
8BAA
 10
48.3889
 20
26.9065
 30
0.000000
  70
    32
  0
VERTEX
  8
0
  5
8BAB
 10
48.4190
 20
26.9021
 30
0.000000
  70
    32
  0
VERTEX
  8
0
  5
8BAC
 10
48.4496
 20
26.8979
 30
0.000000
  70
    32
  0
VERTEX
  8
0
  5
8BAD
 10
48.4806
 20
26.8938
 30
0.000000
  70
    32
  0
VERTEX
  8
0
  5
8BAE
 10
48.5121
 20
26.8899
 30
0.000000
  70
    32
  0
VERTEX
  8
0
  5
8BAF
 10
48.5440
 20
26.8862
 30
0.000000
  70
    32
  0
VERTEX
  8
0
  5
8BB0
 10
48.5763
 20
26.8826
 30
0.000000
  70
    32
  0
VERTEX
  8
0
  5
8BB1
 10
48.6090
 20
26.8793
 30
0.000000
  70
    32
  0
VERTEX
  8
0
  5
8BB2
 10
48.6420
 20
26.8761
 30
0.000000
  70
    32
  0
VERTEX
  8
0
  5
8BB3
 10
48.6754
 20
26.8731
 30
0.000000
  70
    32
  0
VERTEX
  8
0
  5
8BB4
 10
48.7090
 20
26.8703
 30
0.000000
  70
    32
  0
VERTEX
  8
0
  5
8BB5
 10
48.7430
 20
26.8677
 30
0.000000
  70
    32
  0
VERTEX
  8
0
  5
8BB6
 10
48.7773
 20
26.8652
 30
0.000000
  70
    32
  0
VERTEX
  8
0
  5
8BB7
 10
48.8118
 20
26.8630
 30
0.000000
  70
    32
  0
VERTEX
  8
0
  5
8BB8
 10
48.8465
 20
26.8609
 30
0.000000
  70
    32
  0
VERTEX
  8
0
  5
8BB9
 10
48.8815
 20
26.8591
 30
0.000000
  70
    32
  0
VERTEX
  8
0
  5
8BBA
 10
48.9167
 20
26.8574
 30
0.000000
  70
    32
  0
VERTEX
  8
0
  5
8BBB
 10
48.9520
 20
26.8559
 30
0.000000
  70
    32
  0
VERTEX
  8
0
  5
8BBC
 10
48.9875
 20
26.8546
 30
0.000000
  70
    32
  0
VERTEX
  8
0
  5
8BBD
 10
49.0231
 20
26.8535
 30
0.000000
  70
    32
  0
VERTEX
  8
0
  5
8BBE
 10
49.0588
 20
26.8527
 30
0.000000
  70
    32
  0
VERTEX
  8
0
  5
8BBF
 10
49.0946
 20
26.8520
 30
0.000000
  70
    32
  0
VERTEX
  8
0
  5
8BC0
 10
49.1305
 20
26.8515
 30
0.000000
  70
    32
  0
VERTEX
  8
0
  5
8BC1
 10
49.1664
 20
26.8512
 30
0.000000
  70
    32
  0
VERTEX
  8
0
  5
8BC2
 10
49.2023
 20
26.8511
 30
0.000000
  70
    32
  0
VERTEX
  8
0
  5
8BC3
 10
49.2382
 20
26.8512
 30
0.000000
  70
    32
  0
VERTEX
  8
0
  5
8BC4
 10
49.2741
 20
26.8515
 30
0.000000
  70
    32
  0
VERTEX
  8
0
  5
8BC5
 10
49.3100
 20
26.8520
 30
0.000000
  70
    32
  0
VERTEX
  8
0
  5
8BC6
 10
49.3458
 20
26.8527
 30
0.000000
  70
    32
  0
VERTEX
  8
0
  5
8BC7
 10
49.3815
 20
26.8535
 30
0.000000
  70
    32
  0
VERTEX
  8
0
  5
8BC8
 10
49.4171
 20
26.8546
 30
0.000000
  70
    32
  0
VERTEX
  8
0
  5
8BC9
 10
49.4526
 20
26.8559
 30
0.000000
  70
    32
  0
VERTEX
  8
0
  5
8BCA
 10
49.4879
 20
26.8574
 30
0.000000
  70
    32
  0
VERTEX
  8
0
  5
8BCB
 10
49.5231
 20
26.8591
 30
0.000000
  70
    32
  0
VERTEX
  8
0
  5
8BCC
 10
49.5580
 20
26.8609
 30
0.000000
  70
    32
  0
VERTEX
  8
0
  5
8BCD
 10
49.5928
 20
26.8630
 30
0.000000
  70
    32
  0
VERTEX
  8
0
  5
8BCE
 10
49.6273
 20
26.8652
 30
0.000000
  70
    32
  0
VERTEX
  8
0
  5
8BCF
 10
49.6616
 20
26.8677
 30
0.000000
  70
    32
  0
VERTEX
  8
0
  5
8BD0
 10
49.6955
 20
26.8703
 30
0.000000
  70
    32
  0
VERTEX
  8
0
  5
8BD1
 10
49.7292
 20
26.8731
 30
0.000000
  70
    32
  0
VERTEX
  8
0
  5
8BD2
 10
49.7626
 20
26.8761
 30
0.000000
  70
    32
  0
VERTEX
  8
0
  5
8BD3
 10
49.7956
 20
26.8793
 30
0.000000
  70
    32
  0
VERTEX
  8
0
  5
8BD4
 10
49.8283
 20
26.8826
 30
0.000000
  70
    32
  0
VERTEX
  8
0
  5
8BD5
 10
49.8606
 20
26.8862
 30
0.000000
  70
    32
  0
VERTEX
  8
0
  5
8BD6
 10
49.8925
 20
26.8899
 30
0.000000
  70
    32
  0
VERTEX
  8
0
  5
8BD7
 10
49.9240
 20
26.8938
 30
0.000000
  70
    32
  0
VERTEX
  8
0
  5
8BD8
 10
49.9550
 20
26.8979
 30
0.000000
  70
    32
  0
VERTEX
  8
0
  5
8BD9
 10
49.9856
 20
26.9021
 30
0.000000
  70
    32
  0
VERTEX
  8
0
  5
8BDA
 10
50.0157
 20
26.9065
 30
0.000000
  70
    32
  0
VERTEX
  8
0
  5
8BDB
 10
50.0453
 20
26.9111
 30
0.000000
  70
    32
  0
VERTEX
  8
0
  5
8BDC
 10
50.0745
 20
26.9158
 30
0.000000
  70
    32
  0
VERTEX
  8
0
  5
8BDD
 10
50.1031
 20
26.9207
 30
0.000000
  70
    32
  0
VERTEX
  8
0
  5
8BDE
 10
50.1311
 20
26.9257
 30
0.000000
  70
    32
  0
VERTEX
  8
0
  5
8BDF
 10
50.1586
 20
26.9309
 30
0.000000
  70
    32
  0
VERTEX
  8
0
  5
8BE0
 10
50.1855
 20
26.9363
 30
0.000000
  70
    32
  0
VERTEX
  8
0
  5
8BE1
 10
50.2119
 20
26.9417
 30
0.000000
  70
    32
  0
VERTEX
  8
0
  5
8BE2
 10
50.2376
 20
26.9474
 30
0.000000
  70
    32
  0
VERTEX
  8
0
  5
8BE3
 10
50.2627
 20
26.9532
 30
0.000000
  70
    32
  0
VERTEX
  8
0
  5
8BE4
 10
50.2871
 20
26.9591
 30
0.000000
  70
    32
  0
VERTEX
  8
0
  5
8BE5
 10
50.3109
 20
26.9651
 30
0.000000
  70
    32
  0
VERTEX
  8
0
  5
8BE6
 10
50.3341
 20
26.9713
 30
0.000000
  70
    32
  0
VERTEX
  8
0
  5
8BE7
 10
50.3565
 20
26.9776
 30
0.000000
  70
    32
  0
VERTEX
  8
0
  5
8BE8
 10
50.3783
 20
26.9840
 30
0.000000
  70
    32
  0
VERTEX
  8
0
  5
8BE9
 10
50.3993
 20
26.9905
 30
0.000000
  70
    32
  0
VERTEX
  8
0
  5
8BEA
 10
50.4197
 20
26.9972
 30
0.000000
  70
    32
  0
VERTEX
  8
0
  5
8BEB
 10
50.4393
 20
27.0040
 30
0.000000
  70
    32
  0
VERTEX
  8
0
  5
8BEC
 10
50.4581
 20
27.0108
 30
0.000000
  70
    32
  0
VERTEX
  8
0
  5
8BED
 10
50.4762
 20
27.0178
 30
0.000000
  70
    32
  0
VERTEX
  8
0
  5
8BEE
 10
50.4935
 20
27.0249
 30
0.000000
  70
    32
  0
VERTEX
  8
0
  5
8BEF
 10
50.5101
 20
27.0320
 30
0.000000
  70
    32
  0
VERTEX
  8
0
  5
8BF0
 10
50.5258
 20
27.0393
 30
0.000000
  70
    32
  0
VERTEX
  8
0
  5
8BF1
 10
50.5408
 20
27.0466
 30
0.000000
  70
    32
  0
VERTEX
  8
0
  5
8BF2
 10
50.5550
 20
27.0540
 30
0.000000
  70
    32
  0
VERTEX
  8
0
  5
8BF3
 10
50.5683
 20
27.0615
 30
0.000000
  70
    32
  0
VERTEX
  8
0
  5
8BF4
 10
50.5808
 20
27.0691
 30
0.000000
  70
    32
  0
VERTEX
  8
0
  5
8BF5
 10
50.5925
 20
27.0767
 30
0.000000
  70
    32
  0
VERTEX
  8
0
  5
8BF6
 10
50.6034
 20
27.0844
 30
0.000000
  70
    32
  0
VERTEX
  8
0
  5
8BF7
 10
50.6134
 20
27.0922
 30
0.000000
  70
    32
  0
VERTEX
  8
0
  5
8BF8
 10
50.6225
 20
27.1000
 30
0.000000
  70
    32
  0
VERTEX
  8
0
  5
8BF9
 10
50.6308
 20
27.1078
 30
0.000000
  70
    32
  0
VERTEX
  8
0
  5
8BFA
 10
50.6383
 20
27.1157
 30
0.000000
  70
    32
  0
VERTEX
  8
0
  5
8BFB
 10
50.6449
 20
27.1237
 30
0.000000
  70
    32
  0
VERTEX
  8
0
  5
8BFC
 10
50.6506
 20
27.1316
 30
0.000000
  70
    32
  0
VERTEX
  8
0
  5
8BFD
 10
50.6554
 20
27.1396
 30
0.000000
  70
    32
  0
VERTEX
  8
0
  5
8BFE
 10
50.6594
 20
27.1476
 30
0.000000
  70
    32
  0
VERTEX
  8
0
  5
8BFF
 10
50.6624
 20
27.1557
 30
0.000000
  70
    32
  0
VERTEX
  8
0
  5
8C00
 10
50.6646
 20
27.1637
 30
0.000000
  70
    32
  0
VERTEX
  8
0
  5
8C01
 10
50.6660
 20
27.1718
 30
0.000000
  70
    32
  0
VERTEX
  8
0
  5
8C02
 10
50.6664
 20
27.1799
 30
0.000000
  70
    32
  0
SEQEND
  8
0
  5
8C03
  0
LINE
  5
89F3
  8
0
 10
48.564112723291579
 20
26.88395475382239
 30
0.0
 11
48.564112723291579
 21
27.928808844277221
 31
0.0
  0
LINE
  5
89F4
  8
0
 10
49.926626428220438
 20
26.894132441642821
 30
0.0
 11
49.926626428220438
 21
27.943060992912969
 31
0.0
  0
LINE
  5
89F5
  8
0
 10
47.265000000000001
 20
25.50637962380744
 30
0.0
 11
47.488145416243214
 21
25.731268009272121
 31
0.0
  0
LINE
  5
89F6
  8
0
 10
51.152999999999992
 20
25.484575841482091
 30
0.0
 11
50.984006875576817
 21
25.616172652304488
 31
0.0
  0
VIEWPORT
  5
89BB
 67
     1
  8
0
 10
5.6937504565621921
 20
3.9654165553295679
 30
0.0
 40
13.670914547210931
 41
8.7461330960491512
 68
     1
 69
     1
1001
ACAD
1000
MVIEW
1002
{
1070
    16
1010
0.0
1020
0.0
1030
0.0
1010
0.0
1020
0.0
1030
1.0
1040
0.0
1040
8.7461330960491512
1040
5.6937504565621921
1040
3.9654165553295679
1040
50.0
1040
0.0
1040
0.0
1070
     0
1070
   100
1070
     1
1070
     1
1070
     0
1070
     0
1070
     0
1070
     0
1040
0.0
1040
0.0
1040
0.0
1040
10.0
1040
10.0
1040
10.0
1040
10.0
1070
     0
1002
{
1002
}
1002
}
  0
VIEWPORT
  5
89BD
 67
     1
  8
0
 10
5.6570833874499691
 20
3.9687502102589032
 30
0.0
 40
9.0513334199199491
 41
6.3500003364142463
 68
     2
 69
     2
1001
ACAD
1000
MVIEW
1002
{
1070
    16
1010
0.0
1020
0.0
1030
0.0
1010
0.0
1020
0.0
1030
1.0
1040
0.0
1040
10.08512087912089
1040
49.208989499999973
1040
22.202749999999991
1040
50.0
1040
0.0
1040
0.0
1070
     0
1070
   100
1070
     1
1070
     1
1070
     0
1070
     0
1070
     0
1070
     0
1040
0.0
1040
0.0
1040
0.0
1040
1.0
1040
1.0
1040
0.0
1040
0.0
1070
     0
1002
{
1002
}
1002
}
  0
ENDSEC
  0
EOF
