  0
SECTION
  2
HEADER
  9
$ACADVER
  1
AC1009
  9
$INSBASE
 10
110.77443
 20
159.239271
 30
0.0
  9
$EXTMIN
 10
47.265000000000001
 20
18.360409527413569
 30
0.0
  9
$EXTMAX
 10
51.153000000000013
 20
28.803599999999989
 30
0.0
  9
$LIMMIN
 10
0.0
 20
0.0
  9
$LIMMAX
 10
75.0
 20
75.0
  9
$ORTHOMODE
 70
     0
  9
$REGENMODE
 70
     1
  9
$FILLMODE
 70
     1
  9
$QTEXTMODE
 70
     0
  9
$MIRRTEXT
 70
     1
  9
$DRAGMODE
 70
     2
  9
$LTSCALE
 40
5.0
  9
$OSMODE
 70
    37
  9
$ATTMODE
 70
     1
  9
$TEXTSIZE
 40
3.0
  9
$TRACEWID
 40
0.05
  9
$TEXTSTYLE
  7
STANDARD
  9
$CLAYER
  8
0
  9
$CELTYPE
  6
BYLAYER
  9
$CECOLOR
 62
   256
  9
$DIMSCALE
 40
1.0
  9
$DIMASZ
 40
3.0
  9
$DIMEXO
 40
0.0625
  9
$DIMDLI
 40
0.38
  9
$DIMRND
 40
0.0
  9
$DIMDLE
 40
0.0
  9
$DIMEXE
 40
0.18
  9
$DIMTP
 40
0.0
  9
$DIMTM
 40
0.0
  9
$DIMTXT
 40
3.0
  9
$DIMCEN
 40
0.09
  9
$DIMTSZ
 40
0.0
  9
$DIMTOL
 70
     0
  9
$DIMLIM
 70
     0
  9
$DIMTIH
 70
     0
  9
$DIMTOH
 70
     0
  9
$DIMSE1
 70
     0
  9
$DIMSE2
 70
     0
  9
$DIMTAD
 70
     1
  9
$DIMZIN
 70
     0
  9
$DIMBLK
  1

  9
$DIMASO
 70
     1
  9
$DIMSHO
 70
     0
  9
$DIMPOST
  1

  9
$DIMAPOST
  1

  9
$DIMALT
 70
     0
  9
$DIMALTD
 70
     2
  9
$DIMALTF
 40
25.399999999999999
  9
$DIMLFAC
 40
1.0
  9
$DIMTOFL
 70
     0
  9
$DIMTVP
 40
0.0
  9
$DIMTIX
 70
     0
  9
$DIMSOXD
 70
     0
  9
$DIMSAH
 70
     0
  9
$DIMBLK1
  1

  9
$DIMBLK2
  1

  9
$DIMSTYLE
  2
STANDARD
  9
$DIMCLRD
 70
     0
  9
$DIMCLRE
 70
     0
  9
$DIMCLRT
 70
     0
  9
$DIMTFAC
 40
1.0
  9
$DIMGAP
 40
0.09
  9
$LUNITS
 70
     2
  9
$LUPREC
 70
     4
  9
$SKETCHINC
 40
0.1
  9
$FILLETRAD
 40
0.1
  9
$AUNITS
 70
     0
  9
$AUPREC
 70
     0
  9
$MENU
  1
acad
  9
$ELEVATION
 40
0.0
  9
$PELEVATION
 40
0.0
  9
$THICKNESS
 40
0.0
  9
$LIMCHECK
 70
     0
  9
$BLIPMODE
 70
     0
  9
$CHAMFERA
 40
0.0
  9
$CHAMFERB
 40
0.0
  9
$SKPOLY
 70
     0
  9
$TDCREATE
 40
2449291.6096759262
  9
$TDUPDATE
 40
2453404.431468565
  9
$TDINDWG
 40
0.2577769792
  9
$TDUSRTIMER
 40
0.2577745486
  9
$USRTIMER
 70
     1
  9
$ANGBASE
 50
0.0
  9
$ANGDIR
 70
     0
  9
$PDMODE
 70
     0
  9
$PDSIZE
 40
0.0
  9
$PLINEWID
 40
0.0
  9
$COORDS
 70
     1
  9
$SPLFRAME
 70
     0
  9
$SPLINETYPE
 70
     5
  9
$SPLINESEGS
 70
     8
  9
$ATTDIA
 70
     0
  9
$ATTREQ
 70
     1
  9
$HANDLING
 70
-16383
  9
$HANDSEED
  5
8F1A
  9
$SURFTAB1
 70
     6
  9
$SURFTAB2
 70
     6
  9
$SURFTYPE
 70
     6
  9
$SURFU
 70
     6
  9
$SURFV
 70
     6
  9
$UCSNAME
  2

  9
$UCSORG
 10
0.0
 20
0.0
 30
0.0
  9
$UCSXDIR
 10
1.0
 20
0.0
 30
0.0
  9
$UCSYDIR
 10
0.0
 20
1.0
 30
0.0
  9
$PUCSNAME
  2

  9
$PUCSORG
 10
0.0
 20
0.0
 30
0.0
  9
$PUCSXDIR
 10
1.0
 20
0.0
 30
0.0
  9
$PUCSYDIR
 10
0.0
 20
1.0
 30
0.0
  9
$USERI1
 70
     0
  9
$USERI2
 70
     0
  9
$USERI3
 70
     0
  9
$USERI4
 70
     0
  9
$USERI5
 70
     0
  9
$USERR1
 40
0.0
  9
$USERR2
 40
0.0
  9
$USERR3
 40
0.0
  9
$USERR4
 40
0.0
  9
$USERR5
 40
0.0
  9
$WORLDVIEW
 70
     1
  9
$SHADEDGE
 70
     3
  9
$SHADEDIF
 70
    70
  9
$TILEMODE
 70
     1
  9
$MAXACTVP
 70
    48
  9
$PLIMCHECK
 70
     0
  9
$PEXTMIN
 10
1.1314166774899941
 20
0.7937500420517809
 30
0.0
  9
$PEXTMAX
 10
10.18275009740994
 20
7.1437503784660228
 30
0.0
  9
$PLIMMIN
 10
-0.1512494425135334
 20
-0.1679166658656803
  9
$PLIMMAX
 10
11.538750355637911
 20
8.0987497765248211
  9
$UNITMODE
 70
     0
  9
$VISRETAIN
 70
     0
  9
$PLINEGEN
 70
     0
  9
$PSLTSCALE
 70
     0
  0
ENDSEC
  0
SECTION
  2
TABLES
  0
TABLE
  2
VPORT
 70
     2
  0
VPORT
  2
*ACTIVE
 70
     0
 10
0.0
 20
0.0
 11
1.0
 21
1.0
 12
53.573021123763709
 22
23.323356829355092
 13
0.0
 23
0.0
 14
1.0
 24
1.0
 15
0.0
 25
0.0
 16
0.0
 26
0.0
 36
1.0
 17
0.0
 27
0.0
 37
0.0
 40
13.062706948116849
 41
1.563081009296148
 42
50.0
 43
0.0
 44
0.0
 50
0.0
 51
0.0
 71
     0
 72
   100
 73
     1
 74
     1
 75
     0
 76
     0
 77
     0
 78
     0
  0
ENDTAB
  0
TABLE
  2
LTYPE
 70
     1
  0
LTYPE
  2
CONTINUOUS
 70
     0
  3
Solid line
 72
    65
 73
     0
 40
0.0
  0
ENDTAB
  0
TABLE
  2
LAYER
 70
     1
  0
LAYER
  2
0
 70
     0
 62
     7
  6
CONTINUOUS
  0
ENDTAB
  0
TABLE
  2
STYLE
 70
     1
  0
STYLE
  2
STANDARD
 70
     0
 40
0.0
 41
1.0
 50
0.0
 71
     0
 42
3.0
  3
txt.shx
  4
BIGFONT.shx
  0
ENDTAB
  0
TABLE
  2
VIEW
 70
     0
  0
ENDTAB
  0
TABLE
  2
UCS
 70
     0
  0
ENDTAB
  0
TABLE
  2
APPID
 70
     1
  0
APPID
  2
ACAD
 70
     0
  0
ENDTAB
  0
TABLE
  2
DIMSTYLE
 70
     1
  0
DIMSTYLE
  2
STANDARD
 70
     0
  3

  4

  5

  6

  7

 40
1.0
 41
0.18
 42
0.0625
 43
0.38
 44
0.18
 45
0.0
 46
0.0
 47
0.0
 48
0.0
140
0.18
141
0.09
142
0.0
143
25.399999999999999
144
1.0
145
0.0
146
1.0
147
0.09
 71
     0
 72
     0
 73
     1
 74
     1
 75
     0
 76
     0
 77
     0
 78
     0
170
     0
171
     2
172
     0
173
     0
174
     0
175
     0
176
     0
177
     0
178
     0
  0
ENDTAB
  0
ENDSEC
  0
SECTION
  2
BLOCKS
  0
BLOCK
  8
0
  2
$MODEL_SPACE
 70
     0
 10
0.0
 20
0.0
 30
0.0
  3
$MODEL_SPACE
  1

  0
ENDBLK
  5
8C23
  8
0
  0
BLOCK
 67
     1
  8
0
  2
$PAPER_SPACE
 70
     0
 10
0.0
 20
0.0
 30
0.0
  3
$PAPER_SPACE
  1

  0
ENDBLK
  5
8C1F
 67
     1
  8
0
  0
ENDSEC
  0
SECTION
  2
ENTITIES
  0
LINE
  5
8C2F
  8
0
 10
47.265000000000001
 20
25.507699999999989
 30
0.0
 11
47.265000000000001
 21
21.983786865520941
 31
0.0
  0
LINE
  5
8C30
  8
0
 10
51.153000000000013
 20
21.983786865520941
 30
0.0
 11
51.152999999999992
 21
25.484575841482108
 31
0.0
  0
LINE
  5
8C31
  8
0
 10
48.321234151644532
 20
18.789465568613512
 30
0.0
 11
48.315007860657488
 21
19.638935797754129
 31
0.0
  0
LINE
  5
8C32
  8
0
 10
50.190368696701171
 20
18.78946556861354
 30
0.0
 11
50.190368696701178
 21
19.638780534196311
 31
0.0
  0
ARC
  5
8C33
  8
0
 10
49.255801424172851
 20
19.592771936778181
 30
0.0
 40
1.232362409364602
 50
220.6806736378108
 51
319.3193263621896
  0
LINE
  5
8C34
  8
0
 10
47.265000000000001
 20
21.983786865520941
 30
0.0
 11
47.393026806627702
 21
21.897602183577991
 31
0.0
  0
LINE
  5
8C35
  8
0
 10
47.393026806627702
 20
21.897602183577991
 30
0.0
 11
48.314577871735871
 21
21.486938142178872
 31
0.0
  0
LINE
  5
8C36
  8
0
 10
48.314577871735871
 20
21.486938142178872
 30
0.0
 11
48.844402806542149
 21
21.385777882176122
 31
0.0
  0
LINE
  5
8C37
  8
0
 10
48.844402806542149
 20
21.385777882176122
 30
0.0
 11
50.2828402524393
 21
21.541790223594919
 31
0.0
  0
LINE
  5
8C38
  8
0
 10
50.2828402524393
 20
21.541790223594919
 30
0.0
 11
50.813316121804952
 21
21.77271140455175
 31
0.0
  0
LINE
  5
8C39
  8
0
 10
50.813316121804952
 20
21.77271140455175
 30
0.0
 11
51.153000000000013
 21
21.983786865520941
 31
0.0
  0
LINE
  5
8C3A
  8
0
 10
48.844402806542149
 20
19.835614039529862
 30
0.0
 11
50.2828402524393
 21
19.991626380948649
 31
0.0
  0
LINE
  5
8C3B
  8
0
 10
47.393026806627702
 20
20.34743834093171
 30
0.0
 11
48.314577871735871
 21
19.93677429953263
 31
0.0
  0
LINE
  5
8C3C
  8
0
 10
47.265000000000001
 20
20.433623022874681
 30
0.0
 11
47.393026806627702
 21
20.34743834093171
 31
0.0
  0
LINE
  5
8C3D
  8
0
 10
48.314577871735871
 20
19.93677429953263
 30
0.0
 11
48.844402806542149
 21
19.835614039529862
 31
0.0
  0
LINE
  5
8C3E
  8
0
 10
50.2828402524393
 20
19.991626380948649
 30
0.0
 11
50.813316121804952
 21
20.22254756190549
 31
0.0
  0
LINE
  5
8C3F
  8
0
 10
50.813316121804952
 20
20.22254756190549
 30
0.0
 11
51.153000000000013
 21
20.433623022874681
 31
0.0
  0
LINE
  5
8C40
  8
0
 10
51.153000000000013
 20
21.63362302287468
 30
0.0
 11
51.153000000000013
 21
20.433623022874681
 31
0.0
  0
LINE
  5
8C41
  8
0
 10
50.813316121804952
 20
21.422547561905489
 30
0.0
 11
50.813316121804952
 21
20.22254756190549
 31
0.0
  0
LINE
  5
8C42
  8
0
 10
50.2828402524393
 20
21.191626380948641
 30
0.0
 11
50.2828402524393
 21
19.991626380948649
 31
0.0
  0
LINE
  5
8C43
  8
0
 10
48.844402806542149
 20
21.035614039529872
 30
0.0
 11
48.844402806542149
 21
19.835614039529862
 31
0.0
  0
LINE
  5
8C44
  8
0
 10
48.314577871735871
 20
21.136774299532622
 30
0.0
 11
48.314577871735871
 21
19.93677429953263
 31
0.0
  0
LINE
  5
8C45
  8
0
 10
47.393026806627702
 20
21.54743834093173
 30
0.0
 11
47.393026806627702
 21
20.34743834093171
 31
0.0
  0
LINE
  5
8C46
  8
0
 10
47.265000000000001
 20
21.63362302287468
 30
0.0
 11
47.265000000000001
 21
20.433623022874681
 31
0.0
  0
LINE
  5
8C47
  8
0
 10
47.265000000000001
 20
21.63362302287468
 30
0.0
 11
47.324095277089768
 21
21.944005293251251
 31
0.0
  0
LINE
  5
8C48
  8
0
 10
51.153000000000013
 20
21.63362302287468
 30
0.0
 11
51.044904899888131
 21
21.916617875323752
 31
0.0
  0
ARC
  5
8C49
  8
0
 10
49.20900000000001
 20
24.492477574750051
 30
0.0
 40
3.4571932761676121
 50
235.7845869695517
 51
304.21541303044808
  0
LINE
  5
8C4A
  8
0
 10
47.625162545522159
 20
20.243993394366129
 30
0.0
 11
47.625162545522159
 21
20.028167367685171
 31
0.0
  0
LINE
  5
8C4B
  8
0
 10
47.625162545522159
 20
20.028167367685171
 30
0.0
 11
48.633898769992243
 21
19.651249900653472
 31
0.0
  0
ARC
  5
8C4C
  8
0
 10
48.790833928701971
 20
19.599113181585189
 30
0.0
 40
0.1653689254801353
 50
348.60589051256761
 51
161.6225725640297
  0
LINE
  5
8C4D
  8
0
 10
48.952943679120573
 20
19.566443465735968
 30
0.0
 11
50.530049355134238
 21
19.802407764734301
 31
0.0
  0
ARC
  5
8C4E
  8
0
 10
50.64060926730361
 20
19.835771710164281
 30
0.0
 40
0.1154844016893523
 50
26.79157321744119
 51
196.7923721279009
  0
LINE
  5
8C4F
  8
0
 10
50.743696663489992
 20
19.887825872159809
 30
0.0
 11
50.743696663489992
 21
20.192241550906552
 31
0.0
  0
LINE
  5
8C50
  8
0
 10
47.608724334905141
 20
19.961344781453199
 30
0.0
 11
48.617460559375232
 21
19.5844273144215
 31
0.0
  0
ARC
  5
8C51
  8
0
 10
48.774395718084968
 20
19.532290595353231
 30
0.0
 40
0.1653689254801353
 50
348.60589051256761
 51
161.6225725640297
  0
LINE
  5
8C52
  8
0
 10
48.936505468503583
 20
19.499620879504
 30
0.0
 11
50.555076486584092
 21
19.753909952007071
 31
0.0
  0
ARC
  5
8C53
  8
0
 10
50.671894239715201
 20
19.771621819465508
 30
0.0
 40
0.1181528573309564
 50
34.96244400022114
 51
188.6215013451239
  0
LINE
  5
8C54
  8
0
 10
50.768723794939802
 20
19.839328059432582
 30
0.0
 11
50.743696663489992
 21
19.887825872159809
 31
0.0
  0
LINE
  5
8C55
  8
0
 10
47.608724334905141
 20
19.961344781453199
 30
0.0
 11
47.625162545522159
 21
20.028167367685171
 31
0.0
  0
LINE
  5
8C56
  8
0
 10
47.5995524866522
 20
19.906267951396121
 30
0.0
 11
48.608288711122292
 21
19.529350484364421
 31
0.0
  0
ARC
  5
8C57
  8
0
 10
48.76522386983202
 20
19.477213765296149
 30
0.0
 40
0.1653689254801353
 50
348.60589051256761
 51
161.6225725640297
  0
LINE
  5
8C58
  8
0
 10
48.927333620250629
 20
19.444544049446922
 30
0.0
 11
50.580864462017288
 21
19.698833121949988
 31
0.0
  0
ARC
  5
8C59
  8
0
 10
50.697682215148411
 20
19.716544989408451
 30
0.0
 40
0.1181528573309564
 50
34.962444000221211
 51
188.6215013451239
  0
LINE
  5
8C5A
  8
0
 10
50.794511770372999
 20
19.78425122937551
 30
0.0
 11
50.768723794939788
 21
19.839328059432599
 31
0.0
  0
LINE
  5
8C5B
  8
0
 10
47.5995524866522
 20
19.906267951396121
 30
0.0
 11
47.608724334905141
 21
19.961344781453199
 31
0.0
  0
ARC
  5
8C5C
  8
0
 10
49.255801424172851
 20
19.69277193677819
 30
0.0
 40
1.232362409364602
 50
220.6806736378108
 51
319.3193263621896
  0
ARC
  5
8C5D
  8
0
 10
49.255801424172851
 20
19.792771936778191
 30
0.0
 40
1.232362409364602
 50
220.6806736378108
 51
319.3193263621896
  0
ARC
  5
8C5E
  8
0
 10
49.255801424172851
 20
19.892771936778189
 30
0.0
 40
1.232362409364602
 50
220.6806736378108
 51
319.3193263621896
  0
ARC
  5
8C5F
  8
0
 10
49.255801424172851
 20
19.99277193677819
 30
0.0
 40
1.232362409364602
 50
220.6806736378108
 51
319.3193263621896
  0
ARC
  5
8C60
  8
0
 10
49.255801424172851
 20
20.092771936778188
 30
0.0
 40
1.232362409364602
 50
220.6806736378108
 51
319.3193263621896
  0
ARC
  5
8C61
  8
0
 10
49.255801424172851
 20
20.19277193677819
 30
0.0
 40
1.232362409364602
 50
220.6806736378108
 51
319.3193263621896
  0
ARC
  5
8C62
  8
0
 10
49.255801424172851
 20
20.292771936778191
 30
0.0
 40
1.232362409364602
 50
220.6806736378108
 51
319.3193263621896
  0
ARC
  5
8C63
  8
0
 10
49.255801424172851
 20
20.392771936778171
 30
0.0
 40
1.232362409364602
 50
220.6806736378108
 51
319.3193263621896
  0
ARC
  5
8C64
  8
0
 10
49.255801424172851
 20
20.49277193677819
 30
0.0
 40
1.232362409364602
 50
225.89168923830741
 51
315.59471244541879
  0
ARC
  5
8C65
  8
0
 10
49.255801424172851
 20
20.592771936778181
 30
0.0
 40
1.232362409364602
 50
238.55126803892111
 51
307.05331369788792
  0
ARC
  5
8C66
  8
0
 10
49.255801424172851
 20
20.69277193677819
 30
0.0
 40
1.232362409364602
 50
262.60418394824779
 51
294.88135115402622
  0
LINE
  5
8C67
  8
0
 10
47.869986656345532
 20
25.16687723963652
 30
0.0
 11
47.869986656345532
 21
21.685058064335681
 31
0.0
  0
LINE
  5
8C68
  8
0
 10
48.314577871735871
 20
21.486938142178872
 30
0.0
 11
48.314577871735871
 21
25.088705531491449
 31
0.0
  0
LINE
  5
8C69
  8
0
 10
50.2828402524393
 20
21.541790223594919
 30
0.0
 11
50.2828402524393
 21
25.10288374558754
 31
0.0
  0
LINE
  5
8C6A
  8
0
 10
50.813316121804952
 20
21.77271140455175
 30
0.0
 11
50.813316121804952
 21
25.224795773019562
 31
0.0
  0
LINE
  5
8C6B
  8
0
 10
47.265000000000001
 20
25.50637962380744
 30
0.0
 11
47.869986656345532
 21
25.16687723963652
 31
0.0
  0
LINE
  5
8C6C
  8
0
 10
47.869986656345532
 20
25.16687723963652
 30
0.0
 11
48.314577871735871
 21
25.088705531491449
 31
0.0
  0
LINE
  5
8C6D
  8
0
 10
48.314577871735871
 20
25.088705531491449
 30
0.0
 11
50.2828402524393
 21
25.088705531491449
 31
0.0
  0
LINE
  5
8C6E
  8
0
 10
50.2828402524393
 20
25.088705531491449
 30
0.0
 11
50.813316121804952
 21
25.224795773019562
 31
0.0
  0
LINE
  5
8C6F
  8
0
 10
50.813316121804952
 20
25.224795773019562
 30
0.0
 11
51.152999999999992
 21
25.484575841482091
 31
0.0
  0
LINE
  5
8C70
  8
0
 10
47.488145416243221
 20
25.381156364687971
 30
0.0
 11
47.488145416243221
 21
27.189471494755011
 31
0.0
  0
LINE
  5
8C71
  8
0
 10
50.98400687557681
 20
25.35533495532162
 30
0.0
 11
50.98400687557681
 21
27.189471494755011
 31
0.0
  0
LINE
  5
8CF5
  8
0
 10
47.73817980966875
 20
27.17987480178288
 30
0.0
 11
47.73817980966875
 21
28.3431953515312
 31
0.0
  0
LINE
  5
8CF6
  8
0
 10
50.666406683689779
 20
27.17987480178288
 30
0.0
 11
50.666406683689779
 21
28.3431953515312
 31
0.0
  0
POLYLINE
  5
8CF7
  8
0
 66
     1
 10
0.0
 20
0.0
 30
0.0
 70
     8
  0
VERTEX
  5
8CF8
  8
0
 10
47.738199999999992
 20
28.343199999999989
 30
0.0
 70
    32
  0
VERTEX
  5
8CF9
  8
0
 10
47.739899999999999
 20
28.320599999999999
 30
0.0
 70
    32
  0
VERTEX
  5
8CFA
  8
0
 10
47.74519999999999
 20
28.298100000000002
 30
0.0
 70
    32
  0
VERTEX
  5
8CFB
  8
0
 10
47.753999999999998
 20
28.275600000000001
 30
0.0
 70
    32
  0
VERTEX
  5
8CFC
  8
0
 10
47.766299999999987
 20
28.253399999999999
 30
0.0
 70
    32
  0
VERTEX
  5
8CFD
  8
0
 10
47.7821
 20
28.231300000000001
 30
0.0
 70
    32
  0
VERTEX
  5
8CFE
  8
0
 10
47.801200000000001
 20
28.209499999999991
 30
0.0
 70
    32
  0
VERTEX
  5
8CFF
  8
0
 10
47.823799999999991
 20
28.188099999999999
 30
0.0
 70
    32
  0
VERTEX
  5
8D00
  8
0
 10
47.849600000000002
 20
28.167000000000002
 30
0.0
 70
    32
  0
VERTEX
  5
8D01
  8
0
 10
47.878799999999998
 20
28.1463
 30
0.0
 70
    32
  0
VERTEX
  5
8D02
  8
0
 10
47.91109999999999
 20
28.126200000000001
 30
0.0
 70
    32
  0
VERTEX
  5
8D03
  8
0
 10
47.946499999999993
 20
28.1065
 30
0.0
 70
    32
  0
VERTEX
  5
8D04
  8
0
 10
47.984900000000003
 20
28.087399999999999
 30
0.0
 70
    32
  0
VERTEX
  5
8D05
  8
0
 10
48.026299999999999
 20
28.068899999999999
 30
0.0
 70
    32
  0
VERTEX
  5
8D06
  8
0
 10
48.070500000000003
 20
28.051100000000002
 30
0.0
 70
    32
  0
VERTEX
  5
8D07
  8
0
 10
48.117499999999993
 20
28.033999999999988
 30
0.0
 70
    32
  0
VERTEX
  5
8D08
  8
0
 10
48.167000000000002
 20
28.017600000000002
 30
0.0
 70
    32
  0
VERTEX
  5
8D09
  8
0
 10
48.21909999999999
 20
28.001999999999999
 30
0.0
 70
    32
  0
VERTEX
  5
8D0A
  8
0
 10
48.273499999999999
 20
27.987300000000001
 30
0.0
 70
    32
  0
VERTEX
  5
8D0B
  8
0
 10
48.330100000000002
 20
27.973400000000002
 30
0.0
 70
    32
  0
VERTEX
  5
8D0C
  8
0
 10
48.3889
 20
27.9604
 30
0.0
 70
    32
  0
VERTEX
  5
8D0D
  8
0
 10
48.449599999999997
 20
27.9483
 30
0.0
 70
    32
  0
VERTEX
  5
8D0E
  8
0
 10
48.512099999999997
 20
27.937100000000001
 30
0.0
 70
    32
  0
VERTEX
  5
8D0F
  8
0
 10
48.576300000000003
 20
27.926999999999989
 30
0.0
 70
    32
  0
VERTEX
  5
8D10
  8
0
 10
48.642000000000003
 20
27.9178
 30
0.0
 70
    32
  0
VERTEX
  5
8D11
  8
0
 10
48.709000000000003
 20
27.909700000000001
 30
0.0
 70
    32
  0
VERTEX
  5
8D12
  8
0
 10
48.77729999999999
 20
27.902599999999989
 30
0.0
 70
    32
  0
VERTEX
  5
8D13
  8
0
 10
48.846499999999999
 20
27.896599999999999
 30
0.0
 70
    32
  0
VERTEX
  5
8D14
  8
0
 10
48.916699999999999
 20
27.8916
 30
0.0
 70
    32
  0
VERTEX
  5
8D15
  8
0
 10
48.98749999999999
 20
27.887799999999999
 30
0.0
 70
    32
  0
VERTEX
  5
8D16
  8
0
 10
49.058799999999991
 20
27.885000000000002
 30
0.0
 70
    32
  0
VERTEX
  5
8D17
  8
0
 10
49.130499999999998
 20
27.883299999999998
 30
0.0
 70
    32
  0
VERTEX
  5
8D18
  8
0
 10
49.202300000000001
 20
27.8828
 30
0.0
 70
    32
  0
VERTEX
  5
8D19
  8
0
 10
49.274099999999997
 20
27.883299999999998
 30
0.0
 70
    32
  0
VERTEX
  5
8D1A
  8
0
 10
49.345799999999997
 20
27.885000000000002
 30
0.0
 70
    32
  0
VERTEX
  5
8D1B
  8
0
 10
49.417099999999998
 20
27.887799999999999
 30
0.0
 70
    32
  0
VERTEX
  5
8D1C
  8
0
 10
49.487900000000003
 20
27.8916
 30
0.0
 70
    32
  0
VERTEX
  5
8D1D
  8
0
 10
49.557999999999993
 20
27.896599999999999
 30
0.0
 70
    32
  0
VERTEX
  5
8D1E
  8
0
 10
49.627299999999998
 20
27.902599999999989
 30
0.0
 70
    32
  0
VERTEX
  5
8D1F
  8
0
 10
49.695500000000003
 20
27.909700000000001
 30
0.0
 70
    32
  0
VERTEX
  5
8D20
  8
0
 10
49.762599999999992
 20
27.9178
 30
0.0
 70
    32
  0
VERTEX
  5
8D21
  8
0
 10
49.828299999999992
 20
27.926999999999989
 30
0.0
 70
    32
  0
VERTEX
  5
8D22
  8
0
 10
49.892499999999998
 20
27.937100000000001
 30
0.0
 70
    32
  0
VERTEX
  5
8D23
  8
0
 10
49.954999999999991
 20
27.9483
 30
0.0
 70
    32
  0
VERTEX
  5
8D24
  8
0
 10
50.015700000000002
 20
27.9604
 30
0.0
 70
    32
  0
VERTEX
  5
8D25
  8
0
 10
50.0745
 20
27.973400000000002
 30
0.0
 70
    32
  0
VERTEX
  5
8D26
  8
0
 10
50.131100000000011
 20
27.987300000000001
 30
0.0
 70
    32
  0
VERTEX
  5
8D27
  8
0
 10
50.185499999999998
 20
28.001999999999999
 30
0.0
 70
    32
  0
VERTEX
  5
8D28
  8
0
 10
50.2376
 20
28.017600000000002
 30
0.0
 70
    32
  0
VERTEX
  5
8D29
  8
0
 10
50.287100000000002
 20
28.033999999999988
 30
0.0
 70
    32
  0
VERTEX
  5
8D2A
  8
0
 10
50.334099999999992
 20
28.051100000000002
 30
0.0
 70
    32
  0
VERTEX
  5
8D2B
  8
0
 10
50.378300000000003
 20
28.068899999999999
 30
0.0
 70
    32
  0
VERTEX
  5
8D2C
  8
0
 10
50.419699999999999
 20
28.087399999999999
 30
0.0
 70
    32
  0
VERTEX
  5
8D2D
  8
0
 10
50.458100000000002
 20
28.1065
 30
0.0
 70
    32
  0
VERTEX
  5
8D2E
  8
0
 10
50.493499999999997
 20
28.126200000000001
 30
0.0
 70
    32
  0
VERTEX
  5
8D2F
  8
0
 10
50.52579999999999
 20
28.1463
 30
0.0
 70
    32
  0
VERTEX
  5
8D30
  8
0
 10
50.555
 20
28.167000000000002
 30
0.0
 70
    32
  0
VERTEX
  5
8D31
  8
0
 10
50.580800000000004
 20
28.188099999999999
 30
0.0
 70
    32
  0
VERTEX
  5
8D32
  8
0
 10
50.603400000000001
 20
28.209499999999991
 30
0.0
 70
    32
  0
VERTEX
  5
8D33
  8
0
 10
50.622500000000002
 20
28.231300000000001
 30
0.0
 70
    32
  0
VERTEX
  5
8D34
  8
0
 10
50.638300000000001
 20
28.253399999999999
 30
0.0
 70
    32
  0
VERTEX
  5
8D35
  8
0
 10
50.65059999999999
 20
28.275600000000001
 30
0.0
 70
    32
  0
VERTEX
  5
8D36
  8
0
 10
50.659399999999998
 20
28.298100000000002
 30
0.0
 70
    32
  0
VERTEX
  5
8D37
  8
0
 10
50.6646
 20
28.320599999999999
 30
0.0
 70
    32
  0
VERTEX
  5
8D38
  8
0
 10
50.666400000000003
 20
28.343199999999989
 30
0.0
 70
    32
  0
VERTEX
  5
8D39
  8
0
 10
50.6646
 20
28.3658
 30
0.0
 70
    32
  0
VERTEX
  5
8D3A
  8
0
 10
50.659399999999998
 20
28.388300000000001
 30
0.0
 70
    32
  0
VERTEX
  5
8D3B
  8
0
 10
50.65059999999999
 20
28.410799999999991
 30
0.0
 70
    32
  0
VERTEX
  5
8D3C
  8
0
 10
50.638300000000001
 20
28.433
 30
0.0
 70
    32
  0
VERTEX
  5
8D3D
  8
0
 10
50.622500000000002
 20
28.455100000000002
 30
0.0
 70
    32
  0
VERTEX
  5
8D3E
  8
0
 10
50.603400000000001
 20
28.476900000000001
 30
0.0
 70
    32
  0
VERTEX
  5
8D3F
  8
0
 10
50.580800000000004
 20
28.4983
 30
0.0
 70
    32
  0
VERTEX
  5
8D40
  8
0
 10
50.555
 20
28.519400000000001
 30
0.0
 70
    32
  0
VERTEX
  5
8D41
  8
0
 10
50.52579999999999
 20
28.540099999999999
 30
0.0
 70
    32
  0
VERTEX
  5
8D42
  8
0
 10
50.493499999999997
 20
28.560199999999998
 30
0.0
 70
    32
  0
VERTEX
  5
8D43
  8
0
 10
50.458100000000002
 20
28.579899999999999
 30
0.0
 70
    32
  0
VERTEX
  5
8D44
  8
0
 10
50.419699999999999
 20
28.599
 30
0.0
 70
    32
  0
VERTEX
  5
8D45
  8
0
 10
50.378300000000003
 20
28.6175
 30
0.0
 70
    32
  0
VERTEX
  5
8D46
  8
0
 10
50.334099999999992
 20
28.635300000000001
 30
0.0
 70
    32
  0
VERTEX
  5
8D47
  8
0
 10
50.287100000000002
 20
28.6524
 30
0.0
 70
    32
  0
VERTEX
  5
8D48
  8
0
 10
50.2376
 20
28.668800000000001
 30
0.0
 70
    32
  0
VERTEX
  5
8D49
  8
0
 10
50.185499999999998
 20
28.6843
 30
0.0
 70
    32
  0
VERTEX
  5
8D4A
  8
0
 10
50.131100000000011
 20
28.699100000000001
 30
0.0
 70
    32
  0
VERTEX
  5
8D4B
  8
0
 10
50.0745
 20
28.713000000000001
 30
0.0
 70
    32
  0
VERTEX
  5
8D4C
  8
0
 10
50.015700000000002
 20
28.725999999999999
 30
0.0
 70
    32
  0
VERTEX
  5
8D4D
  8
0
 10
49.954999999999991
 20
28.738099999999999
 30
0.0
 70
    32
  0
VERTEX
  5
8D4E
  8
0
 10
49.892499999999998
 20
28.749300000000002
 30
0.0
 70
    32
  0
VERTEX
  5
8D4F
  8
0
 10
49.828299999999992
 20
28.759399999999989
 30
0.0
 70
    32
  0
VERTEX
  5
8D50
  8
0
 10
49.762599999999992
 20
28.768599999999999
 30
0.0
 70
    32
  0
VERTEX
  5
8D51
  8
0
 10
49.695500000000003
 20
28.776700000000002
 30
0.0
 70
    32
  0
VERTEX
  5
8D52
  8
0
 10
49.627299999999998
 20
28.783799999999989
 30
0.0
 70
    32
  0
VERTEX
  5
8D53
  8
0
 10
49.557999999999993
 20
28.7898
 30
0.0
 70
    32
  0
VERTEX
  5
8D54
  8
0
 10
49.487900000000003
 20
28.794799999999999
 30
0.0
 70
    32
  0
VERTEX
  5
8D55
  8
0
 10
49.417099999999998
 20
28.7986
 30
0.0
 70
    32
  0
VERTEX
  5
8D56
  8
0
 10
49.345799999999997
 20
28.801400000000001
 30
0.0
 70
    32
  0
VERTEX
  5
8D57
  8
0
 10
49.274099999999997
 20
28.803100000000001
 30
0.0
 70
    32
  0
VERTEX
  5
8D58
  8
0
 10
49.202300000000001
 20
28.803599999999989
 30
0.0
 70
    32
  0
VERTEX
  5
8D59
  8
0
 10
49.130499999999998
 20
28.803100000000001
 30
0.0
 70
    32
  0
VERTEX
  5
8D5A
  8
0
 10
49.058799999999991
 20
28.801400000000001
 30
0.0
 70
    32
  0
VERTEX
  5
8D5B
  8
0
 10
48.98749999999999
 20
28.7986
 30
0.0
 70
    32
  0
VERTEX
  5
8D5C
  8
0
 10
48.916699999999999
 20
28.794799999999999
 30
0.0
 70
    32
  0
VERTEX
  5
8D5D
  8
0
 10
48.846499999999999
 20
28.7898
 30
0.0
 70
    32
  0
VERTEX
  5
8D5E
  8
0
 10
48.77729999999999
 20
28.783799999999989
 30
0.0
 70
    32
  0
VERTEX
  5
8D5F
  8
0
 10
48.709000000000003
 20
28.776700000000002
 30
0.0
 70
    32
  0
VERTEX
  5
8D60
  8
0
 10
48.642000000000003
 20
28.768599999999999
 30
0.0
 70
    32
  0
VERTEX
  5
8D61
  8
0
 10
48.576300000000003
 20
28.759399999999989
 30
0.0
 70
    32
  0
VERTEX
  5
8D62
  8
0
 10
48.512099999999997
 20
28.749300000000002
 30
0.0
 70
    32
  0
VERTEX
  5
8D63
  8
0
 10
48.449599999999997
 20
28.738099999999999
 30
0.0
 70
    32
  0
VERTEX
  5
8D64
  8
0
 10
48.3889
 20
28.725999999999999
 30
0.0
 70
    32
  0
VERTEX
  5
8D65
  8
0
 10
48.330100000000002
 20
28.713000000000001
 30
0.0
 70
    32
  0
VERTEX
  5
8D66
  8
0
 10
48.273499999999999
 20
28.699100000000001
 30
0.0
 70
    32
  0
VERTEX
  5
8D67
  8
0
 10
48.21909999999999
 20
28.6843
 30
0.0
 70
    32
  0
VERTEX
  5
8D68
  8
0
 10
48.167000000000002
 20
28.668800000000001
 30
0.0
 70
    32
  0
VERTEX
  5
8D69
  8
0
 10
48.117499999999993
 20
28.6524
 30
0.0
 70
    32
  0
VERTEX
  5
8D6A
  8
0
 10
48.070500000000003
 20
28.635300000000001
 30
0.0
 70
    32
  0
VERTEX
  5
8D6B
  8
0
 10
48.026299999999999
 20
28.6175
 30
0.0
 70
    32
  0
VERTEX
  5
8D6C
  8
0
 10
47.984900000000003
 20
28.599
 30
0.0
 70
    32
  0
VERTEX
  5
8D6D
  8
0
 10
47.946499999999993
 20
28.579899999999999
 30
0.0
 70
    32
  0
VERTEX
  5
8D6E
  8
0
 10
47.91109999999999
 20
28.560199999999998
 30
0.0
 70
    32
  0
VERTEX
  5
8D6F
  8
0
 10
47.878799999999998
 20
28.540099999999999
 30
0.0
 70
    32
  0
VERTEX
  5
8D70
  8
0
 10
47.849600000000002
 20
28.519400000000001
 30
0.0
 70
    32
  0
VERTEX
  5
8D71
  8
0
 10
47.823799999999991
 20
28.4983
 30
0.0
 70
    32
  0
VERTEX
  5
8D72
  8
0
 10
47.801200000000001
 20
28.476900000000001
 30
0.0
 70
    32
  0
VERTEX
  5
8D73
  8
0
 10
47.7821
 20
28.455100000000002
 30
0.0
 70
    32
  0
VERTEX
  5
8D74
  8
0
 10
47.766299999999987
 20
28.433
 30
0.0
 70
    32
  0
VERTEX
  5
8D75
  8
0
 10
47.753999999999998
 20
28.410799999999991
 30
0.0
 70
    32
  0
VERTEX
  5
8D76
  8
0
 10
47.74519999999999
 20
28.388300000000001
 30
0.0
 70
    32
  0
VERTEX
  5
8D77
  8
0
 10
47.739899999999999
 20
28.3658
 30
0.0
 70
    32
  0
VERTEX
  5
8D78
  8
0
 10
47.738199999999992
 20
28.343199999999989
 30
0.0
 70
    32
  0
SEQEND
  5
8D79
  8
0
  0
POLYLINE
  5
8D7A
  8
0
 66
     1
 10
0.0
 20
0.0
 30
0.0
 70
     8
  0
VERTEX
  5
8D7B
  8
0
 10
47.873899999999999
 20
28.363700000000001
 30
0.0
 70
    32
  0
VERTEX
  5
8D7C
  8
0
 10
47.875500000000002
 20
28.348500000000001
 30
0.0
 70
    32
  0
VERTEX
  5
8D7D
  8
0
 10
47.880299999999998
 20
28.333400000000001
 30
0.0
 70
    32
  0
VERTEX
  5
8D7E
  8
0
 10
47.888299999999987
 20
28.318300000000001
 30
0.0
 70
    32
  0
VERTEX
  5
8D7F
  8
0
 10
47.899500000000003
 20
28.3033
 30
0.0
 70
    32
  0
VERTEX
  5
8D80
  8
0
 10
47.913899999999991
 20
28.288399999999989
 30
0.0
 70
    32
  0
VERTEX
  5
8D81
  8
0
 10
47.9313
 20
28.273800000000001
 30
0.0
 70
    32
  0
VERTEX
  5
8D82
  8
0
 10
47.951799999999999
 20
28.259299999999989
 30
0.0
 70
    32
  0
VERTEX
  5
8D83
  8
0
 10
47.975299999999997
 20
28.245100000000001
 30
0.0
 70
    32
  0
VERTEX
  5
8D84
  8
0
 10
48.00180000000001
 20
28.231200000000001
 30
0.0
 70
    32
  0
VERTEX
  5
8D85
  8
0
 10
48.031300000000002
 20
28.217600000000001
 30
0.0
 70
    32
  0
VERTEX
  5
8D86
  8
0
 10
48.063499999999998
 20
28.204399999999989
 30
0.0
 70
    32
  0
VERTEX
  5
8D87
  8
0
 10
48.098500000000001
 20
28.191600000000001
 30
0.0
 70
    32
  0
VERTEX
  5
8D88
  8
0
 10
48.136099999999999
 20
28.179099999999991
 30
0.0
 70
    32
  0
VERTEX
  5
8D89
  8
0
 10
48.176400000000001
 20
28.167100000000001
 30
0.0
 70
    32
  0
VERTEX
  5
8D8A
  8
0
 10
48.21909999999999
 20
28.155599999999989
 30
0.0
 70
    32
  0
VERTEX
  5
8D8B
  8
0
 10
48.264200000000002
 20
28.144600000000001
 30
0.0
 70
    32
  0
VERTEX
  5
8D8C
  8
0
 10
48.311500000000002
 20
28.1341
 30
0.0
 70
    32
  0
VERTEX
  5
8D8D
  8
0
 10
48.3611
 20
28.124199999999991
 30
0.0
 70
    32
  0
VERTEX
  5
8D8E
  8
0
 10
48.412599999999998
 20
28.114799999999988
 30
0.0
 70
    32
  0
VERTEX
  5
8D8F
  8
0
 10
48.466099999999997
 20
28.106000000000002
 30
0.0
 70
    32
  0
VERTEX
  5
8D90
  8
0
 10
48.521299999999989
 20
28.097899999999989
 30
0.0
 70
    32
  0
VERTEX
  5
8D91
  8
0
 10
48.578200000000002
 20
28.090399999999988
 30
0.0
 70
    32
  0
VERTEX
  5
8D92
  8
0
 10
48.63669999999999
 20
28.083600000000001
 30
0.0
 70
    32
  0
VERTEX
  5
8D93
  8
0
 10
48.6965
 20
28.077400000000001
 30
0.0
 70
    32
  0
VERTEX
  5
8D94
  8
0
 10
48.7575
 20
28.071899999999999
 30
0.0
 70
    32
  0
VERTEX
  5
8D95
  8
0
 10
48.819600000000001
 20
28.0672
 30
0.0
 70
    32
  0
VERTEX
  5
8D96
  8
0
 10
48.882599999999989
 20
28.063099999999991
 30
0.0
 70
    32
  0
VERTEX
  5
8D97
  8
0
 10
48.94639999999999
 20
28.059799999999989
 30
0.0
 70
    32
  0
VERTEX
  5
8D98
  8
0
 10
49.010800000000003
 20
28.057200000000002
 30
0.0
 70
    32
  0
VERTEX
  5
8D99
  8
0
 10
49.075699999999991
 20
28.055299999999999
 30
0.0
 70
    32
  0
VERTEX
  5
8D9A
  8
0
 10
49.140999999999998
 20
28.054200000000002
 30
0.0
 70
    32
  0
VERTEX
  5
8D9B
  8
0
 10
49.206400000000002
 20
28.053799999999988
 30
0.0
 70
    32
  0
VERTEX
  5
8D9C
  8
0
 10
49.271700000000003
 20
28.054200000000002
 30
0.0
 70
    32
  0
VERTEX
  5
8D9D
  8
0
 10
49.337000000000003
 20
28.055299999999999
 30
0.0
 70
    32
  0
VERTEX
  5
8D9E
  8
0
 10
49.401899999999998
 20
28.057200000000002
 30
0.0
 70
    32
  0
VERTEX
  5
8D9F
  8
0
 10
49.46629999999999
 20
28.059799999999989
 30
0.0
 70
    32
  0
VERTEX
  5
8DA0
  8
0
 10
49.53009999999999
 20
28.063099999999991
 30
0.0
 70
    32
  0
VERTEX
  5
8DA1
  8
0
 10
49.5931
 20
28.0672
 30
0.0
 70
    32
  0
VERTEX
  5
8DA2
  8
0
 10
49.655200000000001
 20
28.071899999999999
 30
0.0
 70
    32
  0
VERTEX
  5
8DA3
  8
0
 10
49.716200000000001
 20
28.077400000000001
 30
0.0
 70
    32
  0
VERTEX
  5
8DA4
  8
0
 10
49.776000000000003
 20
28.083600000000001
 30
0.0
 70
    32
  0
VERTEX
  5
8DA5
  8
0
 10
49.834499999999998
 20
28.090399999999988
 30
0.0
 70
    32
  0
VERTEX
  5
8DA6
  8
0
 10
49.89139999999999
 20
28.097899999999989
 30
0.0
 70
    32
  0
VERTEX
  5
8DA7
  8
0
 10
49.946599999999989
 20
28.106000000000002
 30
0.0
 70
    32
  0
VERTEX
  5
8DA8
  8
0
 10
50.000100000000003
 20
28.114799999999988
 30
0.0
 70
    32
  0
VERTEX
  5
8DA9
  8
0
 10
50.051600000000001
 20
28.124199999999991
 30
0.0
 70
    32
  0
VERTEX
  5
8DAA
  8
0
 10
50.101199999999999
 20
28.1341
 30
0.0
 70
    32
  0
VERTEX
  5
8DAB
  8
0
 10
50.148499999999999
 20
28.144600000000001
 30
0.0
 70
    32
  0
VERTEX
  5
8DAC
  8
0
 10
50.193600000000004
 20
28.155599999999989
 30
0.0
 70
    32
  0
VERTEX
  5
8DAD
  8
0
 10
50.2363
 20
28.167100000000001
 30
0.0
 70
    32
  0
VERTEX
  5
8DAE
  8
0
 10
50.276600000000002
 20
28.179099999999991
 30
0.0
 70
    32
  0
VERTEX
  5
8DAF
  8
0
 10
50.3142
 20
28.191600000000001
 30
0.0
 70
    32
  0
VERTEX
  5
8DB0
  8
0
 10
50.349200000000003
 20
28.204399999999989
 30
0.0
 70
    32
  0
VERTEX
  5
8DB1
  8
0
 10
50.381399999999999
 20
28.217600000000001
 30
0.0
 70
    32
  0
VERTEX
  5
8DB2
  8
0
 10
50.410899999999998
 20
28.231200000000001
 30
0.0
 70
    32
  0
VERTEX
  5
8DB3
  8
0
 10
50.43739999999999
 20
28.245100000000001
 30
0.0
 70
    32
  0
VERTEX
  5
8DB4
  8
0
 10
50.460900000000002
 20
28.259299999999989
 30
0.0
 70
    32
  0
VERTEX
  5
8DB5
  8
0
 10
50.481400000000001
 20
28.273800000000001
 30
0.0
 70
    32
  0
VERTEX
  5
8DB6
  8
0
 10
50.498800000000003
 20
28.288399999999989
 30
0.0
 70
    32
  0
VERTEX
  5
8DB7
  8
0
 10
50.513199999999998
 20
28.3033
 30
0.0
 70
    32
  0
VERTEX
  5
8DB8
  8
0
 10
50.5244
 20
28.318300000000001
 30
0.0
 70
    32
  0
VERTEX
  5
8DB9
  8
0
 10
50.532400000000003
 20
28.333400000000001
 30
0.0
 70
    32
  0
VERTEX
  5
8DBA
  8
0
 10
50.537199999999999
 20
28.348500000000001
 30
0.0
 70
    32
  0
VERTEX
  5
8DBB
  8
0
 10
50.538800000000002
 20
28.363700000000001
 30
0.0
 70
    32
  0
VERTEX
  5
8DBC
  8
0
 10
50.537199999999999
 20
28.378900000000002
 30
0.0
 70
    32
  0
VERTEX
  5
8DBD
  8
0
 10
50.532400000000003
 20
28.394100000000002
 30
0.0
 70
    32
  0
VERTEX
  5
8DBE
  8
0
 10
50.5244
 20
28.409199999999998
 30
0.0
 70
    32
  0
VERTEX
  5
8DBF
  8
0
 10
50.513199999999998
 20
28.424199999999999
 30
0.0
 70
    32
  0
VERTEX
  5
8DC0
  8
0
 10
50.498800000000003
 20
28.439
 30
0.0
 70
    32
  0
VERTEX
  5
8DC1
  8
0
 10
50.481400000000001
 20
28.453700000000001
 30
0.0
 70
    32
  0
VERTEX
  5
8DC2
  8
0
 10
50.460900000000002
 20
28.4682
 30
0.0
 70
    32
  0
VERTEX
  5
8DC3
  8
0
 10
50.43739999999999
 20
28.482299999999999
 30
0.0
 70
    32
  0
VERTEX
  5
8DC4
  8
0
 10
50.410899999999998
 20
28.496300000000002
 30
0.0
 70
    32
  0
VERTEX
  5
8DC5
  8
0
 10
50.381399999999999
 20
28.509799999999991
 30
0.0
 70
    32
  0
VERTEX
  5
8DC6
  8
0
 10
50.349200000000003
 20
28.523099999999999
 30
0.0
 70
    32
  0
VERTEX
  5
8DC7
  8
0
 10
50.3142
 20
28.535900000000002
 30
0.0
 70
    32
  0
VERTEX
  5
8DC8
  8
0
 10
50.276600000000002
 20
28.548400000000001
 30
0.0
 70
    32
  0
VERTEX
  5
8DC9
  8
0
 10
50.2363
 20
28.560400000000001
 30
0.0
 70
    32
  0
VERTEX
  5
8DCA
  8
0
 10
50.193600000000004
 20
28.571899999999999
 30
0.0
 70
    32
  0
VERTEX
  5
8DCB
  8
0
 10
50.148499999999999
 20
28.582899999999999
 30
0.0
 70
    32
  0
VERTEX
  5
8DCC
  8
0
 10
50.101199999999999
 20
28.593399999999988
 30
0.0
 70
    32
  0
VERTEX
  5
8DCD
  8
0
 10
50.051600000000001
 20
28.603300000000001
 30
0.0
 70
    32
  0
VERTEX
  5
8DCE
  8
0
 10
50.000100000000003
 20
28.6127
 30
0.0
 70
    32
  0
VERTEX
  5
8DCF
  8
0
 10
49.946599999999989
 20
28.621400000000001
 30
0.0
 70
    32
  0
VERTEX
  5
8DD0
  8
0
 10
49.89139999999999
 20
28.6296
 30
0.0
 70
    32
  0
VERTEX
  5
8DD1
  8
0
 10
49.834499999999998
 20
28.6371
 30
0.0
 70
    32
  0
VERTEX
  5
8DD2
  8
0
 10
49.776000000000003
 20
28.643899999999999
 30
0.0
 70
    32
  0
VERTEX
  5
8DD3
  8
0
 10
49.716200000000001
 20
28.650099999999991
 30
0.0
 70
    32
  0
VERTEX
  5
8DD4
  8
0
 10
49.655200000000001
 20
28.6556
 30
0.0
 70
    32
  0
VERTEX
  5
8DD5
  8
0
 10
49.5931
 20
28.660299999999999
 30
0.0
 70
    32
  0
VERTEX
  5
8DD6
  8
0
 10
49.53009999999999
 20
28.664400000000001
 30
0.0
 70
    32
  0
VERTEX
  5
8DD7
  8
0
 10
49.46629999999999
 20
28.6677
 30
0.0
 70
    32
  0
VERTEX
  5
8DD8
  8
0
 10
49.401899999999998
 20
28.670300000000001
 30
0.0
 70
    32
  0
VERTEX
  5
8DD9
  8
0
 10
49.337000000000003
 20
28.6722
 30
0.0
 70
    32
  0
VERTEX
  5
8DDA
  8
0
 10
49.271700000000003
 20
28.673300000000001
 30
0.0
 70
    32
  0
VERTEX
  5
8DDB
  8
0
 10
49.206400000000002
 20
28.6737
 30
0.0
 70
    32
  0
VERTEX
  5
8DDC
  8
0
 10
49.140999999999998
 20
28.673300000000001
 30
0.0
 70
    32
  0
VERTEX
  5
8DDD
  8
0
 10
49.075699999999991
 20
28.6722
 30
0.0
 70
    32
  0
VERTEX
  5
8DDE
  8
0
 10
49.010800000000003
 20
28.670300000000001
 30
0.0
 70
    32
  0
VERTEX
  5
8DDF
  8
0
 10
48.94639999999999
 20
28.6677
 30
0.0
 70
    32
  0
VERTEX
  5
8DE0
  8
0
 10
48.882599999999989
 20
28.664400000000001
 30
0.0
 70
    32
  0
VERTEX
  5
8DE1
  8
0
 10
48.819600000000001
 20
28.660299999999999
 30
0.0
 70
    32
  0
VERTEX
  5
8DE2
  8
0
 10
48.7575
 20
28.6556
 30
0.0
 70
    32
  0
VERTEX
  5
8DE3
  8
0
 10
48.6965
 20
28.650099999999991
 30
0.0
 70
    32
  0
VERTEX
  5
8DE4
  8
0
 10
48.63669999999999
 20
28.643899999999999
 30
0.0
 70
    32
  0
VERTEX
  5
8DE5
  8
0
 10
48.578200000000002
 20
28.6371
 30
0.0
 70
    32
  0
VERTEX
  5
8DE6
  8
0
 10
48.521299999999989
 20
28.6296
 30
0.0
 70
    32
  0
VERTEX
  5
8DE7
  8
0
 10
48.466099999999997
 20
28.621400000000001
 30
0.0
 70
    32
  0
VERTEX
  5
8DE8
  8
0
 10
48.412599999999998
 20
28.6127
 30
0.0
 70
    32
  0
VERTEX
  5
8DE9
  8
0
 10
48.3611
 20
28.603300000000001
 30
0.0
 70
    32
  0
VERTEX
  5
8DEA
  8
0
 10
48.311500000000002
 20
28.593399999999988
 30
0.0
 70
    32
  0
VERTEX
  5
8DEB
  8
0
 10
48.264200000000002
 20
28.582899999999999
 30
0.0
 70
    32
  0
VERTEX
  5
8DEC
  8
0
 10
48.21909999999999
 20
28.571899999999999
 30
0.0
 70
    32
  0
VERTEX
  5
8DED
  8
0
 10
48.176400000000001
 20
28.560400000000001
 30
0.0
 70
    32
  0
VERTEX
  5
8DEE
  8
0
 10
48.136099999999999
 20
28.548400000000001
 30
0.0
 70
    32
  0
VERTEX
  5
8DEF
  8
0
 10
48.098500000000001
 20
28.535900000000002
 30
0.0
 70
    32
  0
VERTEX
  5
8DF0
  8
0
 10
48.063499999999998
 20
28.523099999999999
 30
0.0
 70
    32
  0
VERTEX
  5
8DF1
  8
0
 10
48.031300000000002
 20
28.509799999999991
 30
0.0
 70
    32
  0
VERTEX
  5
8DF2
  8
0
 10
48.00180000000001
 20
28.496300000000002
 30
0.0
 70
    32
  0
VERTEX
  5
8DF3
  8
0
 10
47.975299999999997
 20
28.482299999999999
 30
0.0
 70
    32
  0
VERTEX
  5
8DF4
  8
0
 10
47.951799999999999
 20
28.4682
 30
0.0
 70
    32
  0
VERTEX
  5
8DF5
  8
0
 10
47.9313
 20
28.453700000000001
 30
0.0
 70
    32
  0
VERTEX
  5
8DF6
  8
0
 10
47.913899999999991
 20
28.439
 30
0.0
 70
    32
  0
VERTEX
  5
8DF7
  8
0
 10
47.899500000000003
 20
28.424199999999999
 30
0.0
 70
    32
  0
VERTEX
  5
8DF8
  8
0
 10
47.888299999999987
 20
28.409199999999998
 30
0.0
 70
    32
  0
VERTEX
  5
8DF9
  8
0
 10
47.880299999999998
 20
28.394100000000002
 30
0.0
 70
    32
  0
VERTEX
  5
8DFA
  8
0
 10
47.875500000000002
 20
28.378900000000002
 30
0.0
 70
    32
  0
VERTEX
  5
8DFB
  8
0
 10
47.873899999999999
 20
28.363700000000001
 30
0.0
 70
    32
  0
SEQEND
  5
8DFC
  8
0
  0
POLYLINE
  5
8E05
  8
0
 66
     1
 10
0.0
 20
0.0
 30
0.0
 70
     8
  0
VERTEX
  5
8E06
  8
0
 10
47.738199999999992
 20
27.1799
 30
0.0
 70
    32
  0
VERTEX
  5
8E07
  8
0
 10
47.738599999999991
 20
27.171800000000001
 30
0.0
 70
    32
  0
VERTEX
  5
8E08
  8
0
 10
47.739899999999999
 20
27.163699999999992
 30
0.0
 70
    32
  0
VERTEX
  5
8E09
  8
0
 10
47.742100000000001
 20
27.1557
 30
0.0
 70
    32
  0
VERTEX
  5
8E0A
  8
0
 10
47.74519999999999
 20
27.147600000000001
 30
0.0
 70
    32
  0
VERTEX
  5
8E0B
  8
0
 10
47.749200000000002
 20
27.139600000000002
 30
0.0
 70
    32
  0
VERTEX
  5
8E0C
  8
0
 10
47.753999999999998
 20
27.131599999999999
 30
0.0
 70
    32
  0
VERTEX
  5
8E0D
  8
0
 10
47.759700000000002
 20
27.123699999999989
 30
0.0
 70
    32
  0
VERTEX
  5
8E0E
  8
0
 10
47.766299999999987
 20
27.1157
 30
0.0
 70
    32
  0
VERTEX
  5
8E0F
  8
0
 10
47.773799999999987
 20
27.107800000000001
 30
0.0
 70
    32
  0
VERTEX
  5
8E10
  8
0
 10
47.7821
 20
27.100000000000001
 30
0.0
 70
    32
  0
VERTEX
  5
8E11
  8
0
 10
47.791200000000003
 20
27.092199999999998
 30
0.0
 70
    32
  0
VERTEX
  5
8E12
  8
0
 10
47.801200000000001
 20
27.084399999999992
 30
0.0
 70
    32
  0
VERTEX
  5
8E13
  8
0
 10
47.812100000000001
 20
27.076699999999999
 30
0.0
 70
    32
  0
VERTEX
  5
8E14
  8
0
 10
47.823799999999991
 20
27.069099999999999
 30
0.0
 70
    32
  0
VERTEX
  5
8E15
  8
0
 10
47.836300000000001
 20
27.061499999999999
 30
0.0
 70
    32
  0
VERTEX
  5
8E16
  8
0
 10
47.849600000000002
 20
27.053999999999998
 30
0.0
 70
    32
  0
VERTEX
  5
8E17
  8
0
 10
47.863799999999998
 20
27.046600000000002
 30
0.0
 70
    32
  0
VERTEX
  5
8E18
  8
0
 10
47.878799999999998
 20
27.039300000000001
 30
0.0
 70
    32
  0
VERTEX
  5
8E19
  8
0
 10
47.894500000000001
 20
27.032
 30
0.0
 70
    32
  0
VERTEX
  5
8E1A
  8
0
 10
47.91109999999999
 20
27.024899999999999
 30
0.0
 70
    32
  0
VERTEX
  5
8E1B
  8
0
 10
47.928400000000003
 20
27.017800000000001
 30
0.0
 70
    32
  0
VERTEX
  5
8E1C
  8
0
 10
47.946499999999993
 20
27.0108
 30
0.0
 70
    32
  0
VERTEX
  5
8E1D
  8
0
 10
47.965299999999992
 20
27.004000000000001
 30
0.0
 70
    32
  0
VERTEX
  5
8E1E
  8
0
 10
47.984900000000003
 20
26.997199999999999
 30
0.0
 70
    32
  0
VERTEX
  5
8E1F
  8
0
 10
48.005299999999998
 20
26.990500000000001
 30
0.0
 70
    32
  0
VERTEX
  5
8E20
  8
0
 10
48.026299999999999
 20
26.984000000000002
 30
0.0
 70
    32
  0
VERTEX
  5
8E21
  8
0
 10
48.048099999999991
 20
26.977599999999999
 30
0.0
 70
    32
  0
VERTEX
  5
8E22
  8
0
 10
48.070500000000003
 20
26.971299999999999
 30
0.0
 70
    32
  0
VERTEX
  5
8E23
  8
0
 10
48.093699999999998
 20
26.965099999999989
 30
0.0
 70
    32
  0
VERTEX
  5
8E24
  8
0
 10
48.117499999999993
 20
26.959099999999999
 30
0.0
 70
    32
  0
VERTEX
  5
8E25
  8
0
 10
48.141899999999993
 20
26.953199999999999
 30
0.0
 70
    32
  0
VERTEX
  5
8E26
  8
0
 10
48.167000000000002
 20
26.947399999999991
 30
0.0
 70
    32
  0
VERTEX
  5
8E27
  8
0
 10
48.192700000000002
 20
26.941700000000001
 30
0.0
 70
    32
  0
VERTEX
  5
8E28
  8
0
 10
48.21909999999999
 20
26.936299999999999
 30
0.0
 70
    32
  0
VERTEX
  5
8E29
  8
0
 10
48.246000000000002
 20
26.930900000000001
 30
0.0
 70
    32
  0
VERTEX
  5
8E2A
  8
0
 10
48.273499999999999
 20
26.925699999999988
 30
0.0
 70
    32
  0
VERTEX
  5
8E2B
  8
0
 10
48.30149999999999
 20
26.9207
 30
0.0
 70
    32
  0
VERTEX
  5
8E2C
  8
0
 10
48.330100000000002
 20
26.915800000000001
 30
0.0
 70
    32
  0
VERTEX
  5
8E2D
  8
0
 10
48.359200000000001
 20
26.911100000000001
 30
0.0
 70
    32
  0
VERTEX
  5
8E2E
  8
0
 10
48.3889
 20
26.906500000000001
 30
0.0
 70
    32
  0
VERTEX
  5
8E2F
  8
0
 10
48.41899999999999
 20
26.902100000000001
 30
0.0
 70
    32
  0
VERTEX
  5
8E30
  8
0
 10
48.449599999999997
 20
26.8979
 30
0.0
 70
    32
  0
VERTEX
  5
8E31
  8
0
 10
48.480600000000003
 20
26.893799999999992
 30
0.0
 70
    32
  0
VERTEX
  5
8E32
  8
0
 10
48.512099999999997
 20
26.889900000000001
 30
0.0
 70
    32
  0
VERTEX
  5
8E33
  8
0
 10
48.543999999999997
 20
26.886199999999999
 30
0.0
 70
    32
  0
VERTEX
  5
8E34
  8
0
 10
48.576300000000003
 20
26.8826
 30
0.0
 70
    32
  0
VERTEX
  5
8E35
  8
0
 10
48.609000000000002
 20
26.879300000000001
 30
0.0
 70
    32
  0
VERTEX
  5
8E36
  8
0
 10
48.642000000000003
 20
26.876100000000001
 30
0.0
 70
    32
  0
VERTEX
  5
8E37
  8
0
 10
48.675400000000003
 20
26.873100000000001
 30
0.0
 70
    32
  0
VERTEX
  5
8E38
  8
0
 10
48.709000000000003
 20
26.8703
 30
0.0
 70
    32
  0
VERTEX
  5
8E39
  8
0
 10
48.743000000000002
 20
26.867699999999999
 30
0.0
 70
    32
  0
VERTEX
  5
8E3A
  8
0
 10
48.77729999999999
 20
26.865200000000002
 30
0.0
 70
    32
  0
VERTEX
  5
8E3B
  8
0
 10
48.811799999999998
 20
26.863
 30
0.0
 70
    32
  0
VERTEX
  5
8E3C
  8
0
 10
48.846499999999999
 20
26.860900000000001
 30
0.0
 70
    32
  0
VERTEX
  5
8E3D
  8
0
 10
48.881500000000003
 20
26.859100000000002
 30
0.0
 70
    32
  0
VERTEX
  5
8E3E
  8
0
 10
48.916699999999999
 20
26.857399999999998
 30
0.0
 70
    32
  0
VERTEX
  5
8E3F
  8
0
 10
48.951999999999991
 20
26.855899999999991
 30
0.0
 70
    32
  0
VERTEX
  5
8E40
  8
0
 10
48.98749999999999
 20
26.854600000000001
 30
0.0
 70
    32
  0
VERTEX
  5
8E41
  8
0
 10
49.023099999999992
 20
26.8535
 30
0.0
 70
    32
  0
VERTEX
  5
8E42
  8
0
 10
49.058799999999991
 20
26.852699999999999
 30
0.0
 70
    32
  0
VERTEX
  5
8E43
  8
0
 10
49.0946
 20
26.852
 30
0.0
 70
    32
  0
VERTEX
  5
8E44
  8
0
 10
49.130499999999998
 20
26.851500000000001
 30
0.0
 70
    32
  0
VERTEX
  5
8E45
  8
0
 10
49.16640000000001
 20
26.851199999999992
 30
0.0
 70
    32
  0
VERTEX
  5
8E46
  8
0
 10
49.202300000000001
 20
26.851099999999992
 30
0.0
 70
    32
  0
VERTEX
  5
8E47
  8
0
 10
49.238199999999999
 20
26.851199999999992
 30
0.0
 70
    32
  0
VERTEX
  5
8E48
  8
0
 10
49.274099999999997
 20
26.851500000000001
 30
0.0
 70
    32
  0
VERTEX
  5
8E49
  8
0
 10
49.310000000000002
 20
26.852
 30
0.0
 70
    32
  0
VERTEX
  5
8E4A
  8
0
 10
49.345799999999997
 20
26.852699999999999
 30
0.0
 70
    32
  0
VERTEX
  5
8E4B
  8
0
 10
49.381500000000003
 20
26.8535
 30
0.0
 70
    32
  0
VERTEX
  5
8E4C
  8
0
 10
49.417099999999998
 20
26.854600000000001
 30
0.0
 70
    32
  0
VERTEX
  5
8E4D
  8
0
 10
49.452599999999997
 20
26.855899999999991
 30
0.0
 70
    32
  0
VERTEX
  5
8E4E
  8
0
 10
49.487900000000003
 20
26.857399999999998
 30
0.0
 70
    32
  0
VERTEX
  5
8E4F
  8
0
 10
49.523099999999999
 20
26.859100000000002
 30
0.0
 70
    32
  0
VERTEX
  5
8E50
  8
0
 10
49.557999999999993
 20
26.860900000000001
 30
0.0
 70
    32
  0
VERTEX
  5
8E51
  8
0
 10
49.59279999999999
 20
26.863
 30
0.0
 70
    32
  0
VERTEX
  5
8E52
  8
0
 10
49.627299999999998
 20
26.865200000000002
 30
0.0
 70
    32
  0
VERTEX
  5
8E53
  8
0
 10
49.6616
 20
26.867699999999999
 30
0.0
 70
    32
  0
VERTEX
  5
8E54
  8
0
 10
49.695500000000003
 20
26.8703
 30
0.0
 70
    32
  0
VERTEX
  5
8E55
  8
0
 10
49.729199999999999
 20
26.873100000000001
 30
0.0
 70
    32
  0
VERTEX
  5
8E56
  8
0
 10
49.762599999999992
 20
26.876100000000001
 30
0.0
 70
    32
  0
VERTEX
  5
8E57
  8
0
 10
49.7956
 20
26.879300000000001
 30
0.0
 70
    32
  0
VERTEX
  5
8E58
  8
0
 10
49.828299999999992
 20
26.8826
 30
0.0
 70
    32
  0
VERTEX
  5
8E59
  8
0
 10
49.860599999999998
 20
26.886199999999999
 30
0.0
 70
    32
  0
VERTEX
  5
8E5A
  8
0
 10
49.892499999999998
 20
26.889900000000001
 30
0.0
 70
    32
  0
VERTEX
  5
8E5B
  8
0
 10
49.923999999999992
 20
26.893799999999992
 30
0.0
 70
    32
  0
VERTEX
  5
8E5C
  8
0
 10
49.954999999999991
 20
26.8979
 30
0.0
 70
    32
  0
VERTEX
  5
8E5D
  8
0
 10
49.985599999999998
 20
26.902100000000001
 30
0.0
 70
    32
  0
VERTEX
  5
8E5E
  8
0
 10
50.015700000000002
 20
26.906500000000001
 30
0.0
 70
    32
  0
VERTEX
  5
8E5F
  8
0
 10
50.04529999999999
 20
26.911100000000001
 30
0.0
 70
    32
  0
VERTEX
  5
8E60
  8
0
 10
50.0745
 20
26.915800000000001
 30
0.0
 70
    32
  0
VERTEX
  5
8E61
  8
0
 10
50.103099999999998
 20
26.9207
 30
0.0
 70
    32
  0
VERTEX
  5
8E62
  8
0
 10
50.131100000000011
 20
26.925699999999988
 30
0.0
 70
    32
  0
VERTEX
  5
8E63
  8
0
 10
50.158599999999993
 20
26.930900000000001
 30
0.0
 70
    32
  0
VERTEX
  5
8E64
  8
0
 10
50.185499999999998
 20
26.936299999999999
 30
0.0
 70
    32
  0
VERTEX
  5
8E65
  8
0
 10
50.2119
 20
26.941700000000001
 30
0.0
 70
    32
  0
VERTEX
  5
8E66
  8
0
 10
50.2376
 20
26.947399999999991
 30
0.0
 70
    32
  0
VERTEX
  5
8E67
  8
0
 10
50.262700000000002
 20
26.953199999999999
 30
0.0
 70
    32
  0
VERTEX
  5
8E68
  8
0
 10
50.287100000000002
 20
26.959099999999999
 30
0.0
 70
    32
  0
VERTEX
  5
8E69
  8
0
 10
50.31089999999999
 20
26.965099999999989
 30
0.0
 70
    32
  0
VERTEX
  5
8E6A
  8
0
 10
50.334099999999992
 20
26.971299999999999
 30
0.0
 70
    32
  0
VERTEX
  5
8E6B
  8
0
 10
50.356499999999997
 20
26.977599999999999
 30
0.0
 70
    32
  0
VERTEX
  5
8E6C
  8
0
 10
50.378300000000003
 20
26.984000000000002
 30
0.0
 70
    32
  0
VERTEX
  5
8E6D
  8
0
 10
50.399299999999997
 20
26.990500000000001
 30
0.0
 70
    32
  0
VERTEX
  5
8E6E
  8
0
 10
50.419699999999999
 20
26.997199999999999
 30
0.0
 70
    32
  0
VERTEX
  5
8E6F
  8
0
 10
50.439300000000003
 20
27.004000000000001
 30
0.0
 70
    32
  0
VERTEX
  5
8E70
  8
0
 10
50.458100000000002
 20
27.0108
 30
0.0
 70
    32
  0
VERTEX
  5
8E71
  8
0
 10
50.476199999999999
 20
27.017800000000001
 30
0.0
 70
    32
  0
VERTEX
  5
8E72
  8
0
 10
50.493499999999997
 20
27.024899999999999
 30
0.0
 70
    32
  0
VERTEX
  5
8E73
  8
0
 10
50.510100000000001
 20
27.032
 30
0.0
 70
    32
  0
VERTEX
  5
8E74
  8
0
 10
50.52579999999999
 20
27.039300000000001
 30
0.0
 70
    32
  0
VERTEX
  5
8E75
  8
0
 10
50.54079999999999
 20
27.046600000000002
 30
0.0
 70
    32
  0
VERTEX
  5
8E76
  8
0
 10
50.555
 20
27.053999999999998
 30
0.0
 70
    32
  0
VERTEX
  5
8E77
  8
0
 10
50.568300000000001
 20
27.061499999999999
 30
0.0
 70
    32
  0
VERTEX
  5
8E78
  8
0
 10
50.580800000000004
 20
27.069099999999999
 30
0.0
 70
    32
  0
VERTEX
  5
8E79
  8
0
 10
50.592500000000001
 20
27.076699999999999
 30
0.0
 70
    32
  0
VERTEX
  5
8E7A
  8
0
 10
50.603400000000001
 20
27.084399999999992
 30
0.0
 70
    32
  0
VERTEX
  5
8E7B
  8
0
 10
50.613399999999999
 20
27.092199999999998
 30
0.0
 70
    32
  0
VERTEX
  5
8E7C
  8
0
 10
50.622500000000002
 20
27.100000000000001
 30
0.0
 70
    32
  0
VERTEX
  5
8E7D
  8
0
 10
50.630800000000001
 20
27.107800000000001
 30
0.0
 70
    32
  0
VERTEX
  5
8E7E
  8
0
 10
50.638300000000001
 20
27.1157
 30
0.0
 70
    32
  0
VERTEX
  5
8E7F
  8
0
 10
50.6449
 20
27.123699999999989
 30
0.0
 70
    32
  0
VERTEX
  5
8E80
  8
0
 10
50.65059999999999
 20
27.131599999999999
 30
0.0
 70
    32
  0
VERTEX
  5
8E81
  8
0
 10
50.6554
 20
27.139600000000002
 30
0.0
 70
    32
  0
VERTEX
  5
8E82
  8
0
 10
50.659399999999998
 20
27.147600000000001
 30
0.0
 70
    32
  0
VERTEX
  5
8E83
  8
0
 10
50.662399999999998
 20
27.1557
 30
0.0
 70
    32
  0
VERTEX
  5
8E84
  8
0
 10
50.6646
 20
27.163699999999992
 30
0.0
 70
    32
  0
VERTEX
  5
8E85
  8
0
 10
50.665999999999997
 20
27.171800000000001
 30
0.0
 70
    32
  0
VERTEX
  5
8E86
  8
0
 10
50.666400000000003
 20
27.1799
 30
0.0
 70
    32
  0
SEQEND
  5
8E87
  8
0
  0
LINE
  5
8E8A
  8
0
 10
47.265000000000001
 20
25.50637962380744
 30
0.0
 11
47.488145416243221
 21
25.731268009272121
 31
0.0
  0
LINE
  5
8E8B
  8
0
 10
51.152999999999992
 20
25.484575841482091
 30
0.0
 11
50.98400687557681
 21
25.616172652304488
 31
0.0
  0
POLYLINE
  5
8E92
  8
0
 10
47.511848956467823
 20
27.268838023960257
 30
0.0
 66
     1
 70
     8
  0
VERTEX
  8
0
  5
8E98
 10
47.5118
 20
27.2688
 30
0.000000
  70
    32
  0
VERTEX
  8
0
  5
8E99
 10
47.5047
 20
27.2558
 30
0.000000
  70
    32
  0
VERTEX
  8
0
  5
8E9A
 10
47.4988
 20
27.2427
 30
0.000000
  70
    32
  0
VERTEX
  8
0
  5
8E9B
 10
47.4941
 20
27.2295
 30
0.000000
  70
    32
  0
VERTEX
  8
0
  5
8E9C
 10
47.4908
 20
27.2163
 30
0.000000
  70
    32
  0
VERTEX
  8
0
  5
8E9D
 10
47.4888
 20
27.2031
 30
0.000000
  70
    32
  0
VERTEX
  8
0
  5
8E9E
 10
47.4881
 20
27.1899
 30
0.000000
  70
    32
  0
VERTEX
  8
0
  5
8E9F
 10
47.4888
 20
27.1767
 30
0.000000
  70
    32
  0
VERTEX
  8
0
  5
8EA0
 10
47.4907
 20
27.1635
 30
0.000000
  70
    32
  0
VERTEX
  8
0
  5
8EA1
 10
47.4939
 20
27.1503
 30
0.000000
  70
    32
  0
VERTEX
  8
0
  5
8EA2
 10
47.4984
 20
27.1371
 30
0.000000
  70
    32
  0
VERTEX
  8
0
  5
8EA3
 10
47.5042
 20
27.1240
 30
0.000000
  70
    32
  0
VERTEX
  8
0
  5
8EA4
 10
47.5113
 20
27.1110
 30
0.000000
  70
    32
  0
VERTEX
  8
0
  5
8EA5
 10
47.5197
 20
27.0979
 30
0.000000
  70
    32
  0
VERTEX
  8
0
  5
8EA6
 10
47.5294
 20
27.0850
 30
0.000000
  70
    32
  0
VERTEX
  8
0
  5
8EA7
 10
47.5404
 20
27.0721
 30
0.000000
  70
    32
  0
VERTEX
  8
0
  5
8EA8
 10
47.5526
 20
27.0594
 30
0.000000
  70
    32
  0
VERTEX
  8
0
  5
8EA9
 10
47.5661
 20
27.0467
 30
0.000000
  70
    32
  0
VERTEX
  8
0
  5
8EAA
 10
47.5808
 20
27.0341
 30
0.000000
  70
    32
  0
VERTEX
  8
0
  5
8EAB
 10
47.5968
 20
27.0217
 30
0.000000
  70
    32
  0
VERTEX
  8
0
  5
8EAC
 10
47.6140
 20
27.0093
 30
0.000000
  70
    32
  0
VERTEX
  8
0
  5
8EAD
 10
47.6324
 20
26.9971
 30
0.000000
  70
    32
  0
VERTEX
  8
0
  5
8EAE
 10
47.6520
 20
26.9851
 30
0.000000
  70
    32
  0
VERTEX
  8
0
  5
8EAF
 10
47.6728
 20
26.9732
 30
0.000000
  70
    32
  0
VERTEX
  8
0
  5
8EB0
 10
47.6947
 20
26.9614
 30
0.000000
  70
    32
  0
VERTEX
  8
0
  5
8EB1
 10
47.7178
 20
26.9499
 30
0.000000
  70
    32
  0
VERTEX
  8
0
  5
8EB2
 10
47.7420
 20
26.9385
 30
0.000000
  70
    32
  0
VERTEX
  8
0
  5
8EB3
 10
47.7674
 20
26.9273
 30
0.000000
  70
    32
  0
VERTEX
  8
0
  5
8EB4
 10
47.7938
 20
26.9163
 30
0.000000
  70
    32
  0
VERTEX
  8
0
  5
8EB5
 10
47.8214
 20
26.9055
 30
0.000000
  70
    32
  0
VERTEX
  8
0
  5
8EB6
 10
47.8500
 20
26.8949
 30
0.000000
  70
    32
  0
VERTEX
  8
0
  5
8EB7
 10
47.8796
 20
26.8845
 30
0.000000
  70
    32
  0
VERTEX
  8
0
  5
8EB8
 10
47.9102
 20
26.8744
 30
0.000000
  70
    32
  0
VERTEX
  8
0
  5
8EB9
 10
47.9418
 20
26.8645
 30
0.000000
  70
    32
  0
VERTEX
  8
0
  5
8EBA
 10
47.9744
 20
26.8548
 30
0.000000
  70
    32
  0
VERTEX
  8
0
  5
8EBB
 10
48.0079
 20
26.8454
 30
0.000000
  70
    32
  0
VERTEX
  8
0
  5
8EBC
 10
48.0424
 20
26.8362
 30
0.000000
  70
    32
  0
VERTEX
  8
0
  5
8EBD
 10
48.0777
 20
26.8273
 30
0.000000
  70
    32
  0
VERTEX
  8
0
  5
8EBE
 10
48.1139
 20
26.8187
 30
0.000000
  70
    32
  0
VERTEX
  8
0
  5
8EBF
 10
48.1510
 20
26.8104
 30
0.000000
  70
    32
  0
VERTEX
  8
0
  5
8EC0
 10
48.1888
 20
26.8023
 30
0.000000
  70
    32
  0
VERTEX
  8
0
  5
8EC1
 10
48.2275
 20
26.7945
 30
0.000000
  70
    32
  0
VERTEX
  8
0
  5
8EC2
 10
48.2669
 20
26.7871
 30
0.000000
  70
    32
  0
VERTEX
  8
0
  5
8EC3
 10
48.3070
 20
26.7799
 30
0.000000
  70
    32
  0
VERTEX
  8
0
  5
8EC4
 10
48.3478
 20
26.7730
 30
0.000000
  70
    32
  0
VERTEX
  8
0
  5
8EC5
 10
48.3892
 20
26.7664
 30
0.000000
  70
    32
  0
VERTEX
  8
0
  5
8EC6
 10
48.4313
 20
26.7602
 30
0.000000
  70
    32
  0
VERTEX
  8
0
  5
8EC7
 10
48.4741
 20
26.7543
 30
0.000000
  70
    32
  0
VERTEX
  8
0
  5
8EC8
 10
48.5173
 20
26.7487
 30
0.000000
  70
    32
  0
VERTEX
  8
0
  5
8EC9
 10
48.5611
 20
26.7434
 30
0.000000
  70
    32
  0
VERTEX
  8
0
  5
8ECA
 10
48.6055
 20
26.7385
 30
0.000000
  70
    32
  0
VERTEX
  8
0
  5
8ECB
 10
48.6502
 20
26.7339
 30
0.000000
  70
    32
  0
VERTEX
  8
0
  5
8ECC
 10
48.6955
 20
26.7296
 30
0.000000
  70
    32
  0
VERTEX
  8
0
  5
8ECD
 10
48.7411
 20
26.7257
 30
0.000000
  70
    32
  0
VERTEX
  8
0
  5
8ECE
 10
48.7871
 20
26.7221
 30
0.000000
  70
    32
  0
VERTEX
  8
0
  5
8ECF
 10
48.8334
 20
26.7189
 30
0.000000
  70
    32
  0
VERTEX
  8
0
  5
8ED0
 10
48.8800
 20
26.7160
 30
0.000000
  70
    32
  0
VERTEX
  8
0
  5
8ED1
 10
48.9269
 20
26.7135
 30
0.000000
  70
    32
  0
VERTEX
  8
0
  5
8ED2
 10
48.9741
 20
26.7114
 30
0.000000
  70
    32
  0
VERTEX
  8
0
  5
8ED3
 10
49.0214
 20
26.7096
 30
0.000000
  70
    32
  0
VERTEX
  8
0
  5
8ED4
 10
49.0689
 20
26.7081
 30
0.000000
  70
    32
  0
VERTEX
  8
0
  5
8ED5
 10
49.1165
 20
26.7070
 30
0.000000
  70
    32
  0
VERTEX
  8
0
  5
8ED6
 10
49.1642
 20
26.7063
 30
0.000000
  70
    32
  0
VERTEX
  8
0
  5
8ED7
 10
49.2120
 20
26.7060
 30
0.000000
  70
    32
  0
VERTEX
  8
0
  5
8ED8
 10
49.2597
 20
26.7060
 30
0.000000
  70
    32
  0
VERTEX
  8
0
  5
8ED9
 10
49.3075
 20
26.7063
 30
0.000000
  70
    32
  0
VERTEX
  8
0
  5
8EDA
 10
49.3552
 20
26.7070
 30
0.000000
  70
    32
  0
VERTEX
  8
0
  5
8EDB
 10
49.4028
 20
26.7081
 30
0.000000
  70
    32
  0
VERTEX
  8
0
  5
8EDC
 10
49.4503
 20
26.7096
 30
0.000000
  70
    32
  0
VERTEX
  8
0
  5
8EDD
 10
49.4976
 20
26.7113
 30
0.000000
  70
    32
  0
VERTEX
  8
0
  5
8EDE
 10
49.5447
 20
26.7135
 30
0.000000
  70
    32
  0
VERTEX
  8
0
  5
8EDF
 10
49.5916
 20
26.7160
 30
0.000000
  70
    32
  0
VERTEX
  8
0
  5
8EE0
 10
49.6383
 20
26.7189
 30
0.000000
  70
    32
  0
VERTEX
  8
0
  5
8EE1
 10
49.6846
 20
26.7221
 30
0.000000
  70
    32
  0
VERTEX
  8
0
  5
8EE2
 10
49.7306
 20
26.7257
 30
0.000000
  70
    32
  0
VERTEX
  8
0
  5
8EE3
 10
49.7762
 20
26.7296
 30
0.000000
  70
    32
  0
VERTEX
  8
0
  5
8EE4
 10
49.8215
 20
26.7338
 30
0.000000
  70
    32
  0
VERTEX
  8
0
  5
8EE5
 10
49.8663
 20
26.7384
 30
0.000000
  70
    32
  0
VERTEX
  8
0
  5
8EE6
 10
49.9106
 20
26.7434
 30
0.000000
  70
    32
  0
VERTEX
  8
0
  5
8EE7
 10
49.9544
 20
26.7486
 30
0.000000
  70
    32
  0
VERTEX
  8
0
  5
8EE8
 10
49.9977
 20
26.7542
 30
0.000000
  70
    32
  0
VERTEX
  8
0
  5
8EE9
 10
50.0404
 20
26.7601
 30
0.000000
  70
    32
  0
VERTEX
  8
0
  5
8EEA
 10
50.0825
 20
26.7664
 30
0.000000
  70
    32
  0
VERTEX
  8
0
  5
8EEB
 10
50.1240
 20
26.7729
 30
0.000000
  70
    32
  0
VERTEX
  8
0
  5
8EEC
 10
50.1648
 20
26.7798
 30
0.000000
  70
    32
  0
VERTEX
  8
0
  5
8EED
 10
50.2049
 20
26.7870
 30
0.000000
  70
    32
  0
VERTEX
  8
0
  5
8EEE
 10
50.2443
 20
26.7945
 30
0.000000
  70
    32
  0
VERTEX
  8
0
  5
8EEF
 10
50.2829
 20
26.8022
 30
0.000000
  70
    32
  0
VERTEX
  8
0
  5
8EF0
 10
50.3208
 20
26.8103
 30
0.000000
  70
    32
  0
VERTEX
  8
0
  5
8EF1
 10
50.3579
 20
26.8186
 30
0.000000
  70
    32
  0
VERTEX
  8
0
  5
8EF2
 10
50.3941
 20
26.8272
 30
0.000000
  70
    32
  0
VERTEX
  8
0
  5
8EF3
 10
50.4294
 20
26.8361
 30
0.000000
  70
    32
  0
VERTEX
  8
0
  5
8EF4
 10
50.4639
 20
26.8453
 30
0.000000
  70
    32
  0
VERTEX
  8
0
  5
8EF5
 10
50.4974
 20
26.8547
 30
0.000000
  70
    32
  0
VERTEX
  8
0
  5
8EF6
 10
50.5300
 20
26.8644
 30
0.000000
  70
    32
  0
VERTEX
  8
0
  5
8EF7
 10
50.5616
 20
26.8743
 30
0.000000
  70
    32
  0
VERTEX
  8
0
  5
8EF8
 10
50.5923
 20
26.8844
 30
0.000000
  70
    32
  0
VERTEX
  8
0
  5
8EF9
 10
50.6219
 20
26.8948
 30
0.000000
  70
    32
  0
VERTEX
  8
0
  5
8EFA
 10
50.6505
 20
26.9054
 30
0.000000
  70
    32
  0
VERTEX
  8
0
  5
8EFB
 10
50.6780
 20
26.9162
 30
0.000000
  70
    32
  0
VERTEX
  8
0
  5
8EFC
 10
50.7045
 20
26.9272
 30
0.000000
  70
    32
  0
VERTEX
  8
0
  5
8EFD
 10
50.7299
 20
26.9384
 30
0.000000
  70
    32
  0
VERTEX
  8
0
  5
8EFE
 10
50.7541
 20
26.9498
 30
0.000000
  70
    32
  0
VERTEX
  8
0
  5
8EFF
 10
50.7772
 20
26.9613
 30
0.000000
  70
    32
  0
VERTEX
  8
0
  5
8F00
 10
50.7992
 20
26.9731
 30
0.000000
  70
    32
  0
VERTEX
  8
0
  5
8F01
 10
50.8200
 20
26.9850
 30
0.000000
  70
    32
  0
VERTEX
  8
0
  5
8F02
 10
50.8396
 20
26.9970
 30
0.000000
  70
    32
  0
VERTEX
  8
0
  5
8F03
 10
50.8580
 20
27.0092
 30
0.000000
  70
    32
  0
VERTEX
  8
0
  5
8F04
 10
50.8752
 20
27.0215
 30
0.000000
  70
    32
  0
VERTEX
  8
0
  5
8F05
 10
50.8912
 20
27.0340
 30
0.000000
  70
    32
  0
VERTEX
  8
0
  5
8F06
 10
50.9059
 20
27.0466
 30
0.000000
  70
    32
  0
VERTEX
  8
0
  5
8F07
 10
50.9194
 20
27.0592
 30
0.000000
  70
    32
  0
VERTEX
  8
0
  5
8F08
 10
50.9317
 20
27.0720
 30
0.000000
  70
    32
  0
VERTEX
  8
0
  5
8F09
 10
50.9426
 20
27.0849
 30
0.000000
  70
    32
  0
VERTEX
  8
0
  5
8F0A
 10
50.9523
 20
27.0978
 30
0.000000
  70
    32
  0
VERTEX
  8
0
  5
8F0B
 10
50.9607
 20
27.1108
 30
0.000000
  70
    32
  0
VERTEX
  8
0
  5
8F0C
 10
50.9679
 20
27.1239
 30
0.000000
  70
    32
  0
VERTEX
  8
0
  5
8F0D
 10
50.9737
 20
27.1370
 30
0.000000
  70
    32
  0
VERTEX
  8
0
  5
8F0E
 10
50.9782
 20
27.1502
 30
0.000000
  70
    32
  0
VERTEX
  8
0
  5
8F0F
 10
50.9815
 20
27.1633
 30
0.000000
  70
    32
  0
VERTEX
  8
0
  5
8F10
 10
50.9834
 20
27.1766
 30
0.000000
  70
    32
  0
VERTEX
  8
0
  5
8F11
 10
50.9840
 20
27.1898
 30
0.000000
  70
    32
  0
VERTEX
  8
0
  5
8F12
 10
50.9833
 20
27.2030
 30
0.000000
  70
    32
  0
VERTEX
  8
0
  5
8F13
 10
50.9813
 20
27.2162
 30
0.000000
  70
    32
  0
VERTEX
  8
0
  5
8F14
 10
50.9780
 20
27.2294
 30
0.000000
  70
    32
  0
VERTEX
  8
0
  5
8F15
 10
50.9735
 20
27.2425
 30
0.000000
  70
    32
  0
VERTEX
  8
0
  5
8F16
 10
50.9676
 20
27.2556
 30
0.000000
  70
    32
  0
VERTEX
  8
0
  5
8F17
 10
50.9604
 20
27.2687
 30
0.000000
  70
    32
  0
VERTEX
  8
0
  5
8F18
 10
50.9519
 20
27.2817
 30
0.000000
  70
    32
  0
SEQEND
  8
0
  5
8F19
  0
VIEWPORT
  5
8E8E
 67
     1
  8
0
 10
5.6937504565621921
 20
3.9654165553295679
 30
0.0
 40
13.670914547210931
 41
8.7461330960491512
 68
     1
 69
     1
1001
ACAD
1000
MVIEW
1002
{
1070
    16
1010
0.0
1020
0.0
1030
0.0
1010
0.0
1020
0.0
1030
1.0
1040
0.0
1040
8.7461330960491512
1040
5.6937504565621921
1040
3.9654165553295679
1040
50.0
1040
0.0
1040
0.0
1070
     0
1070
   100
1070
     1
1070
     1
1070
     0
1070
     0
1070
     0
1070
     0
1040
0.0
1040
0.0
1040
0.0
1040
10.0
1040
10.0
1040
10.0
1040
10.0
1070
     0
1002
{
1002
}
1002
}
  0
VIEWPORT
  5
8E90
 67
     1
  8
0
 10
5.6570833874499691
 20
3.9687502102589032
 30
0.0
 40
9.0513334199199491
 41
6.3500003364142463
 68
     2
 69
     2
1001
ACAD
1000
MVIEW
1002
{
1070
    16
1010
0.0
1020
0.0
1030
0.0
1010
0.0
1020
0.0
1030
1.0
1040
0.0
1040
10.08512087912089
1040
49.208989499999973
1040
22.202749999999991
1040
50.0
1040
0.0
1040
0.0
1070
     0
1070
   100
1070
     1
1070
     1
1070
     0
1070
     0
1070
     0
1070
     0
1040
0.0
1040
0.0
1040
0.0
1040
1.0
1040
1.0
1040
0.0
1040
0.0
1070
     0
1002
{
1002
}
1002
}
  0
ENDSEC
  0
EOF
